PrimaNota.ru - самый крупный в мире бесплатный архив песенных текстов, аккордов, табулатур и нот


Jungle - Drops - аккорды и текст, видео

Регистрация Запомнить меня
Войти через:  Facebook Google Twitter Vk Yandex Mail.ru

Jungle - Drops - аккорды и текст, видео

Печатать
Просмотров: 120
Уроки эстрадного вокала в Санкт-Петербурге
Drops
Jungle
Dm            F       G
When you're so high you (Don't think)
Dm                     F     G
When you fall from the sky you (Won't break)

A#                    
So come down from the clouds
C
Come down
A#
So some down from the clouds
C
Come down

e|--------------------------------|
B|-10--8--6--8--10----------------|
G|------------------5--7----------|
D|--------------------------------|
A|--------------------------------|
E|--------------------------------|


Dm         F       G

Dm               F    G     
I've been loving you, too long
Dm        F           G
I've been loving you, for too long.


A#
So some down from the clouds
C
Come down
A#
So some down from the clouds
C
Come down

e|--------------------------------|
B|-10--8--6--8--10----------------|
G|------------------5--7----------|
D|--------------------------------|
A|--------------------------------|
E|--------------------------------|


Dm            F       G
When you're so high you (Don't think)
Dm                     F     G
When you fall from the sky you (Won't break)
Dm               F    G     
I've been loving you, too long
Dm        F           G
I've been loving you, for too long.

Dm         F      G
Добавлено: 01.12.2015
Вам также может быть интересно:
Другие материалы по этой песне:
  • Аккорды и текст

Страница создана 01.12.2015
http://primanota.ru/jungle/drops-chords.htm
Привет, Гость.
Предлагаем пройти революционный курс по гитаре.
Подарок от PrimaNota.Ru, забирай!