PrimaNota.ru - самый крупный в мире бесплатный архив песенных текстов, аккордов, табулатур и нот


Jungle - Busy Earning - бас-таба, видео

Регистрация Запомнить меня
Войти через:  Facebook Google Twitter Vk Yandex Mail.ru

Jungle - Busy Earning - бас-таба, видео

Печатать
Просмотров: 275
Busy Earnin' - Jungle

Thought I'd put this up seeing as I couldn't find one online anywhere.
Such a great Bass line, definitely worth learning if you get time! Hope you all enjoy it!


INTRO


          2 bars of rest (Organ)
|--------------------|--------------------|
|--------------------|--------------------|
|--------------------|--------------------|
|--------------------|--------------------|



|-----------10-------|-----------8-------|-----------3-------|-------------------|
|--------------------|-------------------|-------------------|-------------------|
|--8--------------8--|--6-------------6--|--1-------------1--|--4--------4-------|
|--------------------|-------------------|-------------------|----------------4--|



|-----------10-------|-----------8-------|-----------7-------|-------------------|
|--------------------|-------------------|-------------------|-------------------|
|--8--------------8--|--6-------------6--|--5-------------5--|--4----------------|
|--------------------|-------------------|-------------------|-----------6----8--|



|-----------10-------|-----------8-------|-----------3-------|-------------------|
|--------------------|-------------------|-------------------|-------------------|
|--8--------------8--|--6-------------6--|--1-------------1--|--4--------4-------|
|--------------------|-------------------|-------------------|----------------4--|



VERSE 1



|-----------10-------|-----------8-------|-----------7-------|-------------------|
|--------------------|-------------------|-------------------|-------------------|
|--8--------------8--|--6-------------6--|--5-------------5--|--4----------------|
|--------------------|-------------------|-------------------|-----------6----8--|



|-----------10-------|-----------8-------|-----------3-------|-------------------|
|--------------------|-------------------|-------------------|-------------------|
|--8--------------8--|--6-------------6--|--1-------------1--|--4--------4-------|
|--------------------|-------------------|-------------------|----------------4--|



CHORUS 1



|-----------10-------|-----------8-------|-----------7-------|-------------------|
|--------------------|-------------------|-------------------|-------------------|
|--8--------------8--|--6-------------6--|--5-------------5--|--4----------------|
|--------------------|-------------------|-------------------|-----------6----8--|



|-----------10-------|-----------8-------|-----------3-------|-------------------|
|--------------------|-------------------|-------------------|-------------------|
|--8--------------8--|--6-------------6--|--1-------------1--|--4--------4-------|
|--------------------|-------------------|-------------------|----------------4--|



VERSE 2


                     ~~~~~~~              ~~~~~~~              ~~~~~~~
|----------------------|---------7----------|---------6----------|----------------------|
|----------------------|--------------------|--------------------|-----------6h8--------|
|------6---------6--5--|--(5)---------5--4--|--(4)---------4-----|-----------------6h8--|
|----------------------|--------------------|-----------------6--|--(6)-----------------|


                     ~~~~~~~              ~~~~~~~              ~~~~~~~
|-----------8----------|---------7----------|---------6----------|---------------------|
|----------------------|--------------------|--------------------|---------------------|
|--6-------------6--5--|--(5)---------5--4--|--(4)---------4-----|---------------------|
|----------------------|--------------------|-----------------6--|--(6)--------6----4--|



CHORUS 2



|-----------10-------|-----------8-------|-----------7-------|-------------------|
|--------------------|-------------------|-------------------|-------------------|
|--8--------------8--|--6-------------6--|--5-------------5--|--4----------------|
|--------------------|-------------------|-------------------|-----------6----8--|



|---------10----------|-----------8-------|-----------3-------|-------------------|
|---------------------|-------------------|-------------------|-------------------|
|--8----------8----8\-|-\6-------------6--|--1-------------1--|--4--------4-------|
|---------------------|-------------------|-------------------|----------------4--|



BREAK



   1    2    3    4        1   2   3   4      1   2    3    4    ~~~~ 1     2     3     4
|-----------------------|-----------------|-----------------------|--------------------------|
|-----------------------|-----------------|-----------------------|---------------6h8--------|
|-------8---6-----6---5-|----------5---4--|-------8---6-----6-----|--------------8------6h8--|
|-----------------------|-----------------|---------------------6-|-(6)----------------------|



   1    2    3    4        1   2   3   4      1   2    3    4    ~~~~ 1     2     3     4
|-----------------------|-----------------|-----------------------|------------------------|
|-----------6-----------|-----------------|-----------------------|------------------------|
|-------8---------6---5-|----------5------|-------8---6-----6-----|---------------------8--|
|-----------------------|--------------6--|---------------------6-|-(6)--------------------|



CHORUS 3



|-----------10-------|-----------8-------|-----------7-------|-------------------|
|--------------------|-------------------|-------------------|-------------------|
|--8--------------8--|--6-------------6--|--5-------------5--|--4----------------|
|--------------------|-------------------|-------------------|-----------6----8--|



|---------10----------|-----------8-------|-----------3-------|-------------------|
|---------------------|-------------------|-------------------|-------------------|
|--8----------8----8\-|-\6-------------6--|--1-------------1--|--4--------4-------|
|---------------------|-------------------|-------------------|----------------4--|



|-----------10-------|-----------8-------|-----------7-------|-------------------|
|--------------------|-------------------|-------------------|-------------------|
|--8--------------8--|--6-------------6--|--5-------------5--|--4----------------|
|--------------------|-------------------|-------------------|-----------6----8--|



OUTRO


   1    2    3    4        1   2   3   4      1   2    3    4    ~~~~ 1     2     3     4
|-----------------------|-----------------|-----------------------|--------------------------|
|-----------------------|-----------------|-----------------------|---------------6h8--------|
|-------8---6-----6---5-|----------5---4--|-------8---6-----6-----|--------------8------6h8--|
|-----------------------|-----------------|---------------------6-|-(6)----------------------|



   1    2    3    4        1   2   3   4      1   2    3    4    ~~~~ 1     2     3     4
|-----------------------|-----------------|-----------------------|--------------------------|
|-----------------------|-----------------|-----------------------|---------------6h8--------|
|-------8---6-----6---5-|----------5---4--|-------8---6-----6-----|--------------8------6h8--|
|-----------------------|-----------------|---------------------6-|-(6)----------------------|



Tablature Legend
----------------
 h   - hammer-on
 b   - bend
 /\  - slide (-8\-|-\6- slide from 8 to 6 across the bar)
 ~   - vibrato
 |   - bar


Tabbed by agsessionmusic, Monday 8th June, 2015
Добавлено: 01.12.2015
Другие материалы по этой песне:
  • Аккорды и текст

Страница создана 01.12.2015
http://primanota.ru/jungle/busy-earning-chords.htm
Привет, Гость.
Предлагаем пройти революционный курс по гитаре.
Подарок от PrimaNota.Ru, забирай!