PrimaNota.ru - самый крупный в мире бесплатный архив песенных текстов, аккордов, табулатур и нот


Jungle Rot - Rotton Bodies - таба, видео

Регистрация Запомнить меня
Войти через:  Facebook Google Twitter Vk Yandex Mail.ru

Jungle Rot - Rotton Bodies - таба, видео

Печатать
Просмотров: 117
Band:  (Jungle Rot)
Album: (Skin the Living)
Song:  (Rotten Bodies)

.  - palm mute           /  - slide up to
\  - slide down to       ~  - vibrato
h  - hammer on           b  - Bend
p  - pull off            Suffixes for bend
t  - tap                 f  - full bend    h - half bend
ph - pinched harmonic    q  - quarter bend t - tap bend
*  - see comment         ^  - Hold bend    r release bend
x  - Stuccatto           ~  - vibrato bend
,  - slight palm mute    () - ghost note, sustained note
"  - tremolo note        <> - Trill

Tunning C F A# D# G C

Riff 1
|-----------------------|
|-----------------------|
|-----------------------|
|-----------------------|
|-----8------9-8--------|
|-0-0-6--0-0-7-6--------|

Riff 2
|-----------------------|
|-----------------------|
|-----------------------|
|-----------------------|
|-----3------4----------|
|-2-2-1--2-2-2----------|

Riff 3
|-----------------------|
|-----------------------|
|-----------------------|
|-----------------------|
|-----2------2----------|
|-1-1-0--1-1-0----------|

Riff 4
|-----------------------|
|-----------------------|
|-----------------------|
|-----------------------|
|-----------------------|
|-0"--3-2-1-3-4---------|

riff 5
|-----------------------|
|-----------------------|
|--1\-------------------|
|-----------------------|
|-----------------------|
|-----------------------|

Riff 6
|-----------------------|
|-----------------------|
|-----------------------|
|-----------------------|
|-----------------------|
|5-6-5-6-5-6-4-5-4-5-4-5|

riff 7
|-----------------------|
|-----------------------|
|-----------------------|
|-----------------------|
|-----------------------|
|-1-2-1-3-1-------------|

riff 8
|-----------------------|
|-----------------------|
|-----------------------|
|-----------------------|
|-2---------------------|
|-0---------------------|

Riff 1 Played 8 Times
Riff 2 Played 4 Times
Riff 3 Played 4 Times
Riff 2 Played 4 Times
Riff 3 Played 4 Times
Riff 1 Played 8 Times
Riff 4 Played 3 Times
Riff 5 Played 1 Time
Riff 4 Played 3 Times
Riff 6 played 1 Time
Riff 4 Played 3 Times
Riff 6 played 1 Time
Riff 7 Played 3 Times
Riff 6 played 1 Time
Riff 7 Played 3 Times
Riff 6 played 1 Time
Riff 8 Played 1 Time

END
Добавлено: 27.04.2012
Вам также может быть интересно:
Другие материалы по этой песне:
  • Аккорды и текст

Страница создана 27.04.2012
http://primanota.ru/jungle-rot/rotton-bodies-chords.htm
Привет, Гость.
Предлагаем пройти революционный курс по гитаре.
Подарок от PrimaNota.Ru, забирай!