PrimaNota.ru - самый крупный в мире бесплатный архив песенных текстов, аккордов, табулатур и нот


Jungle Rot - More Demon Souls - текст песни, бас-таба, видео

Регистрация Запомнить меня
Войти через:  Facebook Google Twitter Vk Yandex Mail.ru

Jungle Rot - More Demon Souls - текст песни, бас-таба, видео

Печатать
Просмотров: 182
--------------------------------------------------------------------------------
More Demon Souls - Jungle Rot
--------------------------------------------------------------------------------

Tabbed by: Lassi Nurminen
E-Mail: Gaborik10@hotmail.com / Gaborik@welho.com

Tuning: BEAD

0:03
|---------|
|---------| Four
|---------| Times
|-3-2-1-0-|

0:06
|------------------------------------| Four Times
|-------------------------2----------|
|-7------7-6-----6-7-----------------| *Its up to the player,
|---000*-----000*-----000*---3-2-1-0-| how many 0's you'll play

0:20
|---------|
|---------| 37 Times
|---------| (May have lost count though..)
|-3-2-1-0-|

0:44
|---------------------------------|
|-----------------------2---------| Six
|-7-----7-6-----6-7---------------| Times
|---000-----000-----000---3-2-1-0-|

1:05
|---------|
|---------| Repeat
|---------| many times..
|-3-2-1-0-|

1:25
|---------------|
|---------------|
|---------------|
|-0---0---0---0-|

1:32
Repeat all this for three times
|-----------------|
|-----------------| Four
|-----------------| Times
|-0-0-0-0-2-2-3-3-|

|-----------------|
|-----------------| Four
|-----------------| Times
|-2-2-3-3-1-1-2-2-|

2:14
|-----------------|
|-----------------| Four
|-----------------| Times
|-2-2-3-3-1-1-2-2-|

2:21
|-----------------|
|-----------------| Four
|-----------------| Times
|-0-0-0-0-2-2-3-3-|

2:28
|---|
|---|
|---|
|-0-|
Добавлено: 03.06.2012
Другие материалы по этой песне:
  • Аккорды и текст

Страница создана 13.04.2012
http://primanota.ru/jungle-rot/more-demon-souls-chords.htm
Привет, Гость.
Предлагаем пройти революционный курс по гитаре.
Подарок от PrimaNota.Ru, забирай!