PrimaNota.ru - самый крупный в мире бесплатный архив песенных текстов, аккордов, табулатур и нот


Jungle Rot - Habit Fulfilled - текст песни, бас-таба, видео

Регистрация Запомнить меня
Войти через:  Facebook Google Twitter Vk Yandex Mail.ru

Jungle Rot - Habit Fulfilled - текст песни, бас-таба, видео

Печатать
Просмотров: 119
-------------------------------------------------------------------------------
Habit Fulfilled - Jungle Rot
-------------------------------------------------------------------------------

Tabbed by: Lassi Nurminen
E-Mail: Gaborik10@hotmail.com / Gaborik@welho.com

Tuning: BEAD

0:00
|-----------------|
|-----------------|
|-----------------|
|-1---1---3--3--1-|

0:05
|------------------------------------------------------------|
|------------------------------------------------------------| Four
|------------------------------------------------------------| Times
|-1--0-0-0-0-0-0-1--0-0-0-0-0-0-3--0-0-3--0-0-1--0-0-0-0-0-0-|

0:28
|-------------------------------------------------------------|
|-------------------------------------------------------------| Twice
|----2-2----3-3--------------------2-2----3-3-----------------|
|-2------2------1-1-1-1-1-1-1-1-2------2------3-3-3-3-3-3-3-3-|

0:39
|-----------------------------------|
|-----------------------------------| Twice
|----2-2----3-3--------2-2----3-3---|
|-2------2------1---2------3------3-|

0:50
|------------------------------------------------------------|
|------------------------------------------------------------| Four
|------------------------------------------------------------| Times
|-1--0-0-0-0-0-0-1--0-0-0-0-0-0-3--0-0-3--0-0-1--0-0-0-0-0-0-|

1:13
|-------------------------------------------------------------|
|-------------------------------------------------------------| Twice
|----2-2----3-3--------------------2-2----3-3-----------------|
|-2------2------1-1-1-1-1-1-1-1-2------2------3-3-3-3-3-3-3-3-|

1:24
|-----------------------------------|
|-----------------------------------| Twice
|----2-2----3-3--------2-2----3-3---|
|-2------2------1---2------3------3-|

1:35
|----------------------------------------------------|
|----------------------------------------------------| Twice
|----------------------------------------------------|
|-2\1--0--0-0-0-2\1--0--0-0-0-2\1--0--0-0-0-2\1--3-3-|

1:47
|-------------------------------------------------------------|
|-------------------------------------------------------------|
|-------------------------------------------------------------|
|-2\1--0-0-0-0-0-0-2\1--0-0-0-0-0-0-2\1--0-0-0-0-0-0-2\1--3-3-|

1:52
|----------------------------------------------------|
|----------------------------------------------------|
|----------------------------------------------------|
|-2\1--0--0-0-0-2\1--0--0-0-0-2\1--0--0-0-0-2\1--3-3-|

1:58
|-------------------------------------------------------------|
|-------------------------------------------------------------| Twice
|-------------------------------------------------------------|
|-2\1--0-0-0-0-0-0-2\1--0-0-0-0-0-0-2\1--0-0-0-0-0-0-2\1--3-3-|

2:10
|-----------------|
|-----------------|
|-----------------|
|-1---1---3--3--1-|

2:15
|------------------------------------------------------------|
|------------------------------------------------------------| Three
|------------------------------------------------------------| Times
|-1--0-0-0-0-0-0-1--0-0-0-0-0-0-3--0-0-3--0-0-1--0-0-0-0-0-0-|

|-----------------------------------------------|
|-----------------------------------------------|
|-----------------------------------------------|
|-1--0-0-0-0-0-0-1--0-0-0-0-0-0-3--0-0-3--0-0-1-
Добавлено: 27.06.2012
Другие материалы по этой песне:
  • Аккорды и текст

Страница создана 21.02.2012
http://primanota.ru/jungle-rot/habit-fulfilled-chords.htm
Привет, Гость.
Предлагаем пройти революционный курс по гитаре.
Подарок от PrimaNota.Ru, забирай!