PrimaNota.ru - самый крупный в мире бесплатный архив песенных текстов, аккордов, табулатур и нот


June - Invitations - текст песни, таба, видео

Регистрация Запомнить меня
Войти через:  Facebook Google Twitter Vk Yandex Mail.ru

June - Invitations - текст песни, таба, видео

Печатать
Просмотров: 146
ALL JUNE SONGS ARE IN Eb!
That note is for anyone that plays June
well yeah Its not done but it will be this is all i have so far.

June
Invitations
If You Speak Any Faster


Intro
eb--------------------------------|
Bb--------------------------------|
Gb--------------------------------|
Db-6--6-6--6-6--6-6--6-6--6-6--6--|
Ab-6--6-6--6-6--6-6--6-6--6-6--6--|
Eb-4--4-4--4-4--4-4--4-4--4-4--4--|

Verse Pt 1 x2
eb--------------------------------------------------|
Bb--------------------------------------------------|
Gb-------------------------4-4--4-4-4---------------|
Db-6-6--6-6-6--2-2--2-2-2--4-4--4-4-4--4-4--4-4-4---|
Ab-6-6--6-6-6--2-2--2-2-2--2-2--2-2-2--4-4--4-4-4---|
Eb-4-4--4-4-4--0-0--0-0-0--------------2-2--2-2-2---|

Verse Pt 2
eb-----------------------------------------|
Bb-----------------------------------------|
Gb-----------------------------------------|
Db-8-8-8-9-9-9------------9h11-8-8-9-9--2~-|
Ab------------9-9-9-9-9-9-9----8-8-9-9--2~-|
Eb-----------------------------6-6-7-7--0~-|

PM . . . . . . . . . . .  

Play The Verse Pt 1 and 2 agaian

Then Pre-Chorus

eb---------------------------------------|
Bb---------------------------------------|
Gb---------------------------------------|
Db---------------------------------------|
Ab---------------------------------------|
Eb---------------------------------------|

eb-------------------------------|
Bb-------------------------------|
Gb-----------------4~-------4~---|
Db-2~------2~------4~-------4~---|
Ab-2~------2~------2~-------2~---|
Eb-0~------0~--------------------|

Chorus
eb---------------------------------------------------|
Bb---------------------------------------------------|
Gb-------------------------------------8--8-8-8-8-8--|
Db-2--2-2-2-2--4--4-4-4-4--6--6-6-6-6--8--8-8-8-8-8--|
Ab-2--2-2-2-2--4--4-4-4-4--6--6-6-6-6--6--6-6-6-6-6--|
Eb-0--0-0-0-0--2--2-2-2-2--4--4-4-4-4----------------|

Cont.
eb----------------------------------------------------------|
Bb----------------------------------------------------------|
Gb----------------------------------------------------------|
Db-2-2-2-2-2-2-2-2-2-2-2-2-2-2-2-2-2-2-2-2-2-2-2-2-2-2-2-2--|
Ab-2-2-2-2-2-2-2-2-2-2-2-2-2-2-2-2-2-2-2-2-2-2-2-2-2-2-2-2--|
Eb-0-0-0-0-0-0-0-0-0-0-0-0-0-0-0-0-0-0-0-0-0-0-0-0-0-0-0-0--|

I can here it in your voice, but im blocking the words out 

eb----------------------------------------------------------|
Bb----------------------------------------------------------|
Gb----------------------------------------------------------|
Db-4-4-4-4-4-4-4-4-4-4-4-4-4-4-4-4-4-4-4-4-4-4-4-4-4-4-4-4--|
Ab-4-4-4-4-4-4-4-4-4-4-4-4-4-4-4-4-4-4-4-4-4-4-4-4-4-4-4-4--|
Eb-2-2-2-2-2-2-2-2-2-2-2-2-2-2-2-2-2-2-2-2-2-2-2-2-2-2-2-2--|
I guess i'll have to make a choice blah blah i dont know what he says.

eb---------------------------------------|
Bb---------------------------------------|
Gb----------------------8"-----8b--------|
Db-6~-------9"-8"-9"-------8"------------|
Ab-6~----------------9"------------------|
Eb-4~------------------------------------|

Verse

Pre-Chorus

Chorus

Solo x2
eb----------------------------|------------------------------------------------------11-11-11--|
Bb----------------------------|---------------------------7-7---------------13-13-13-12-12-12--|
Gb---------8-8--------8-8-----|------8b---8b---8b---8-8-8-8-8--11-11-11-11--12-12-12-----------|
Db-6-6-9-9----6-6-9-9---------|-x2------9----9------9-9-9------11-11-11-11---------------------|
Ab------------------------9-9-|----------------------------------------------------------------|
Eb----------------------------|----------------------------------------------------------------|


Interlude
eb--------------------------------------------|
Bb--------------------------------------------|
Gb-----------9-9-9-9-9-9-9-9-8-8-8-8-8-8-8-8--|
Db-----------9-9-9-9-9-9-9-9-9-9-9-9-9-9-9-9--|
Ab--6~---7~--7-7-7-7-7-7-7-7-7-7-7-7-7-7-7-7--|
Eb--------------------------------------------|

Play a different chorus till end
eb---------------------------------------|
Bb---------------------------------------|
Gb---------------------------------------|
Db-2-2-2-2-2-2-2-4-4-4-4-4-4-6-6-6-6-6-6-|
Ab-2-2-2-2-2-2-2-4-4-4-4-4-4-6-6-6-6-6-6-|
Eb-0-0-0-0-0-0-0-2-2-2-2-2-2-4-4-4-4-4-4-|
Добавлено: 06.04.2012
Другие материалы по этой песне:
  • Аккорды и текст

Страница создана 09.03.2012
http://primanota.ru/june/invitations-chords.htm
Привет, Гость.
Предлагаем пройти революционный курс по гитаре.
Подарок от PrimaNota.Ru, забирай!