PrimaNota.ru - самый крупный в мире бесплатный архив песенных текстов, аккордов, табулатур и нот


June - Id Lose Mysef - бас-таба, видео

Регистрация Запомнить меня
Войти через:  Facebook Google Twitter Vk Yandex Mail.ru

June - Id Lose Mysef - бас-таба, видео

Печатать
Просмотров: 147
Уроки эстрадного вокала в Санкт-Петербурге
Okay so this is how I play I'd Lose Myself by June.

This is a very fun song to play and very easy

If you have any corrections fell free to comment or emial me at;
Glmclaughlin13@aol.com

Tabbed by Glmclaughlin13

Intro X2 (the secand time only play one 2 at the end)

G|---------------------------------------------------------------------------|
D|---------------------------------------------------------------------------|
A|----7-7-7---------------------2-2-2----------------------------------------|
E|-----------7-7-7--2-2--4-4-4---------2-2-----------------------------------|


Verse  (play once when guitar comes in)
G|------------------------------------------------------------------------------|
D|------------------------------------------------------------------------------|
A|-------------2----------------------------------------------------------------|
E|----4-4-4-4-------------------------------------------------------------------|
    Chorus x2


G|---------------------------------------------------------------------------|
D|---------------------------------------------------------------------------|
A|----7-7-7---------------------2-2-2----------------------------------------|
E|-----------7-7-7--2-2--4-4-4---------2-2-----------------------------------|

    Verse 2
G|------------------------------------------------------------------------------|
D|------------------------------------------------------------------------------|
A|----2--4-4-4--2---------------------------------------------------------------|
E|-----------------0------------------------------------------------------------|
   Pre-Chorus x3

G|---------------------------------------------------------------------------|
D|---------------------------------------------------------------------------|
A|---------------------------------------------------------------------------|
E|----2-2-2--0-0-0-0--4-4-4--0-0-0-0-----------------------------------------|
   Chorus x4

G|---------------------------------------------------------------------------|
D|---------------------------------------------------------------------------|
A|----7-7-7---------------------2-2-2----------------------------------------|
E|-----------7-7-7--2-2--4-4-4---------2-2-----------------------------------|

   Brige x2

G|-----------------------------------------------------------------------------|
D|-----------------------------------------------------------------------------|
A|-----------------------------------------------------------------------------|
E|---7-7--7-7-7-7-7-7--6--6-6-6-6-6-6--4-4--4-4-4-4-4-4--2--2-2-2-2-2-2--0-2---|

G|---------------------------------------------------------------------------|
D|---------------------------------------------------------------------------|
A|---------------------------------------------------------------------------|
E|----7-7-7-7--4-4-4-4--2-2-2-2--6-6-6-6-------------------------------------|
     Chorus x4
G|---------------------------------------------------------------------------|
D|---------------------------------------------------------------------------|
A|----7-7-7---------------------2-2-2----------------------------------------|
E|-----------7-7-7--2-2--4-4-4---------2-2-----------------------------------|

Ok so thats pretty much it.
Im not too sure about the verses and the Brige could probably use some work.
If you have any suggestions please comment or email me.

Hope you Enjoy :D
Добавлено: 23.02.2012
Другие материалы по этой песне:
  • Аккорды и текст

Страница создана 23.02.2012
http://primanota.ru/june/id-lose-mysef-chords.htm
Привет, Гость.
Предлагаем пройти революционный курс по гитаре.
Подарок от PrimaNota.Ru, забирай!