PrimaNota.ru - самый крупный в мире бесплатный архив песенных текстов, аккордов, табулатур и нот


June Paik - Aleska - таба, видео

Регистрация Запомнить меня
Войти через:  Facebook Google Twitter Vk Yandex Mail.ru

June Paik - Aleska - таба, видео

Печатать
Просмотров: 76
http://www.facebook.com/pages/June-Paik/227035240692978

JUNE PAIK - ALESKA

    C#|-------------------------------------|-- x5 -|
    G#|-------------------------------------|-------|
GTR  E|---7-----9-----7-----5-------5h7-4---|-4-----|
 1   B|-5---5-----5-----5-----5---5---------|---5---|
    F#|-------7-----7-----7-----7-----------|-------|
    C#|-----------------------------------0-|-----0-|

    C#|-------------------------------------|-- x5 -|
    G#|-------------------------------------|-------|
GTR  E|---7-----9-----7-----5-------5h7-4---|-4-----|
 1   B|-5---5-----5-----5-----5---5---------|---5---|
    F#|-------7-----7-----7-----7-----------|-------|
    C#|-----------------------------------0-|-----0-|

    C#|--- x3 --|------------|
    G#|---------|-7-7-7-7----|
GTR  E|-7-7-7-7-|-4-4-4-4----|
 2   B|-5-5-5-5-|-5-5-5-5-x4-|
    F#|-7-7-7-7-|-7-7-7-7----|
    C#|---------|------------|

    C#|-----------------------------------|-- x5 -|
    G#|-----------------------------------|-------|
GTR  E|---4-----4-----5-----5-----5---7---|-4-----|
 1   B|-----5-----5-----5-----5-----5-----|---5---|
    F#|-----------------------------------|-------|
    C#|-0-----0-----0-----0-----0-------0-|-----0-|

    C#|-------------------------------------------|
    G#|-7-7-7-7-7-7-7-7-7-7-7-7-7-7-7-7-7---------|
GTR  E|-4-4-4-4-4-4-4-4-4-4-4-4-4-4-4-4-4-4-4-4-4-|
 2   B|-5-5-5-5-5-5-5-5-5-5-5-5-5-5-5-5-5-5-5-5-5-|
    F#|-7-7-7-7-7-7-7-7-7-7-7-7-7-7-7-7-7-7-7-7-7-|
    C#|-------------------------------------------|

    C#|-------------------------------------|-- x5 -|
    G#|-------------------------------------|-------|
GTR  E|---7-----9-----7-----5-------5h7-4---|-4-----| x2
 1   B|-5---5-----5-----5-----5---5---------|---5---|
    F#|-------7-----7-----7-----7-----------|-------|
    C#|-----------------------------------0-|-----0-|

    C#|--- x3 --|------------|
    G#|---------|-7-7-7-7----|
GTR  E|-7-7-7-7-|-4-4-4-4----|
 2   B|-5-5-5-5-|-5-5-5-5-x4-| x2
    F#|-7-7-7-7-|-7-7-7-7----|
    C#|---------|------------|

    C#|-----------------------------------|
    G#|-----------------------------------|
GTR  E|---4-----4-----5-----5-----5---7---|
 1   B|-----5-----5-----5-----5-----5-----|
    F#|-----------------------------------|
    C#|-0-----0-----0-----0-----0-------0-|

    C#|-----------------------------------|
    G#|-7-7-7-7-7-7-7-7-7-7-7-7-7-7-7-7-7-|
GTR  E|-4-4-4-4-4-4-4-4-4-4-4-4-4-4-4-4-4-|
 2   B|-5-5-5-5-5-5-5-5-5-5-5-5-5-5-5-5-5-|
    F#|-7-7-7-7-7-7-7-7-7-7-7-7-7-7-7-7-7-|
    C#|-----------------------------------|

    C#|---------------------------------|
    G#|---------------------------------|
GTR  E|-4-4-4-4-4-4-4-4-4-4-4-4-5-5-5-5-|
 1   B|-2-2-2-2-2-2-2-2-2-2-2-2-2-2-2-2-| x3
    F#|---------------------------------|
    C#|---------------------------------|

    C#|---------------------------------|
    G#|-------------------------6-6-6-6-|
GTR  E|-4-4-4-4-4-4-4-4-4-4-4-4---------|
 2   B|-2-2-2-2-2-2-2-2-2-2-2-2-2-2-2-2-| x3
    F#|---------------------------------|
    C#|---------------------------------|

    C#|---------------------------------|
    G#|---------------------------------|
GTR  E|-4-4-4-4-4-4-4-4-4-4-4-4-5-5-5-5-|
 1   B|-2-2-2-2-2-2-2-2-2-2-2-2-2-2-2-2-|
    F#|---------------------------------|
    C#|---------------------------------|

    C#|-------------------7-7-7---------|
    G#|-------------------------6-6-6-6-|
GTR  E|-4-4-4-4-4-4-4-4-4-4-4-4---------|
 2   B|-2-2-2-2-2-2-2-2-2-2-2-2-2-2-2-2-| 
    F#|---------------------------------|
    C#|---------------------------------|

    C#|--------------------------------|
    G#|--------------------------------|
GTR  E|-12-12-111111-999-171717-171717-|
1+2  B|--------------------------------| x2
    F#|-10-10-9-9-9--777-151515-141414-|
    C#|--------------------------------|

    C#|---------------------------------------------------------|
    G#|---------------------------------------------------------|
GTR  E|-121212-111111-171717-171717-191919-212121-171717-161616-|
1+2  B|---------------------------------------------------------| x4
    F#|-101010-9-9-9--151515-141414-171717-191919-151515-141414-|
    C#|---------------------------------------------------------|

    C#|-------------------------------------|
    G#|-------------------------------------|
GTR  E|-7--9--12-11-9-161616-111111-777-999-|
1+2  B|-------------------------------------|
    F#|-5--7--10-9--7-141414-9-9-9--555-777-|
    C#|-------------------------------------|

    C#|-------------------------------------|
    G#|-------------------------------------|
GTR  E|-12-11-9-161616-111111-121212-111111-|
1+2  B|-------------------------------------|
    F#|-10-9--7-141414-9-9-9--101010-9-9-9--|
    C#|-------------------------------------|

    C#|------------------------------------|
    G#|------------------------------------|
GTR  E|-999999-111111-121212-111111-121212-|
1+2  B|------------------------------------|
    F#|-777777-9-9-9--101010-9-9-9--101010-|
    C#|------------------------------------|

    C#|---------------------------------------------|
    G#|---------------------------------------------|
GTR  E|---------------------------------------------|
 1   B|-10---10-12---12-9---9-14---14-17---17-16----|
    F#|-10---10-12---12-9---9-14---14-17---17-16----|
    C#|-8----8--10---10-7---7-12---12-15---15-14----|

    C#|---------------------------------------------|
    G#|---------------------------------------------|
GTR  E|---------------------7-----------------------|
 2   B|-10---10-12---12-9-----14---14-17---17-16----|
    F#|-10---10-12---12-9---9-14---14-17---17-16----|
    C#|-8----8--10---10-7---7-12---12-15---15-14----|

    C#|-------------------------------------------------------|
    G#|-------------------------------------------------------|
GTR  E|-161616161616-191716191716-141414-161616-121212-191919-|
1+2  B|-------------------------------------------------------|
    F#|-141414141414-171514171514-121212-141414-101010-171717-|
    C#|-------------------------------------------------------|

    C#|-------------------------------------------------------|
    G#|-------------------------------------------------------|
GTR  E|-161616161616-191716191716-121212-111111-191919-161616-|
1+2  B|-------------------------------------------------------|
    F#|-141414141414-171514171514-101010-9-9-9--171717-141414-|
    C#|-------------------------------------------------------|

    C#|---------------------------|
    G#|----------------------6----|
GTR  E|----------5/7--------------|
 1   B|-3--3--3------2--2--2------|
    F#|-3--3--3--3/5-2--2--2-7----|
    C#|-1--1--1------0--0--0------|

    C#|---------------------------|
    G#|----------5/6---------6----|
GTR  E|-5--5--5------4--4--4-4----|
 2   B|-2--2--2--2---2--2--2-2----|
    F#|---------------------------|
    C#|---------------------------|

    C#|-------------------------|
    G#|-------------------------|
GTR  E|-------------------------|
 1   B|-5--5--5--5-5-4-4-4-4----|
    F#|-3--3--3--3-3-2-2-2-2----|
    C#|-------------------------|

    C#|-----7-----7-----8-----10---7-----7------|
    G#|-7h8---7h8---7h8---7h8----7-----7--------|
GTR  E|------------------------------9-----9----|
 2   B|-----------------------------------------|
    F#|-----------------------------------------|
    C#|-----------------------------------------|

---------------------------------------------------------

    C#|--------------------------------------|
    G#|--------------------------------------|
GTR  E|-16-16-16-16--17-16-14-12-9--9--9--9--|
 1   B|--------------------------------------|
    F#|-14-14-14-14--15-14-12-10-7--7--7--7--|
    C#|--------------------------------------|

    C#|------------------------------------------------|
    G#|-13-13-13-13------------------------------------|
GTR  E|-16-16-16-16--17-16-14-12-9--16-17-16-14--16-11-|
 2   B|------------------------------------------------|
    F#|--------------15-14-12-10-7--14-15-14-12--14-9--|
    C#|------------------------------------------------|

    C#|---------------------------------------|
    G#|---------------------------------------|
GTR  E|-16--17-16-14--16-12-12-12-12-12-12-12-|
 1   B|---------------------------------------|
    F#|-14--15-14-12--14-10-10-10-10-10-10-10-|
    C#|---------------------------------------|

    C#|-------------------------------------------|
    G#|-------------------------------------------|
GTR  E|-16--17-16-14--16-12--16-17-16-14-16-17-19-|
 2   B|-------------------------------------------|
    F#|-14--15-14-12--14-10--14-15-14-12-14-15-17-|
    C#|-------------------------------------------|

    C#|-------------------------------------------------|
    G#|-------------------------------------------------|
GTR  E|-12-12-12-12-12-12-12-12-11-11-11-11-14-14-14-14-|
 1   B|-------------------------------------------------|
    F#|-10-10-10-10-10-10-10-10-9--9--9--9--12-12-12-12-|
    C#|-------------------------------------------------|

    C#|-------------------------------------------------|
    G#|-------------------------------------------------|
GTR  E|-24-24-24-24-24-24-24-24-11-11-11-11-14-14-14-14-|
 2   B|-------------------------------------------------|
    F#|-22-22-22-22-22-22-22-22-9--9--9--9--12-12-12-12-|
    C#|-------------------------------------------------|

Play section x2
------------------------------------------------------------ 

    C#|---------------------------------------------------------------------|
    G#|---------------------------------------------------------8-8---------|
GTR  E|-5-5-5-5-5-5-5-5-5-5-5-5-5-5-5-7-4-4-4-4-4-4-4-4-4-4-4-4-1111-101010-|
 1   B|---------------------------------------------------------------------|
    F#|-3-3-3-3-3-3-3-3-3-3-3-3-3-3-3-5-2-2-2-2-2-2-2-2-2-2-2-2------8-8-8--|
    C#|---------------------------------------------------------------------|

    C#|---------------------------------------------------------------------|
    G#|---------------------------------------------------------------------|
GTR  E|---------------------12-12-11-11-------------------------1111-101010-|
 2   B|---------------------------------------------------------------------|
    F#|---------------------10-10-9--9--------------------------9-9--8-8-8--|
    C#|---------------------------------------------------------------------|

    C#|-------------------------|
    G#|-------------------------|
GTR  E|-------------------------|
1+2  B|----------------feedback-|
    F#|-2-2--2-2--2-2-----------|
    C#|-0-0--0-0--0-0-----------|

    C#|---------------------|
    G#|---------------------|
GTR  E|---------------------|
1+2  B|----------------bass-|
    F#|-2-2--2-2--2-2-------|
    C#|-0-0--0-0--0-0-------|

    C#|-------------------------------------|
    G#|-------------------------------------|
GTR  E|-------------------------------------|
 1   B|-3-3--3-3--3-3-----------------------|
    F#|-2-2--2-2--2-2-----------------------|
    C#|-0-0--0-0--0-0-----------------------|

    C#|-------------------------------------|
    G#|-------------------------------------|
GTR  E|----------------17-17-16-19-17-16-17-|
 2   B|-3-3--3-3--3-3-----------------------|
    F#|-2-2--2-2--2-2--15-15-14-17-15-14-15-|
    C#|-0-0--0-0--0-0-----------------------|

    C#|--------------------------------------------|
    G#|--------------------------------------------|
GTR  E|--------------------------------------------|
 1   B|-3-3--3-3--3-3------------------------------|
    F#|-2-2--2-2--2-2------------------------------|
    C#|-0-0--0-0--0-0------------------------------|

    C#|--------------------------------------------|
    G#|--------------------------------------------|
GTR  E|--------------------------------------------|
 2   B|-3-3--3-3--3-3----------------10101010-9999-|
    F#|-2-2--2-2--2-2--10101010-9999---------------|
    C#|-0-0--0-0--0-0------------------------------|

    C#|---------------------------------------------------------------------|
    G#|---------------------------------------------------------------------|
GTR  E|-1616161616161616-1414141414141414-1212121212121212-1111111111111111-|
 1   B|---------------------------------------------------------------------|
    F#|-1414141414141414-1212121212121212-1010101010101010-9-9-9-9-9-9-9-9--|
    C#|---------------------------------------------------------------------|

    C#|---------------------------------|
    G#|---------------------------------|
GTR  E|---------------12-12-12-12-14-11-|
 2   B|---------------------------------| x2
    F#|-2-2--2-2--2-2-10-10-10-10-12-9--|
    C#|-0-0--0-0--0-0-------------------|

    C#|-----------------------------------|
    G#|-----------------------------------|
GTR  E|-1717171717171717-1616161616161616-|
 1   B|-----------------------------------|
    F#|-1515151515151515-1414141414141414-|
    C#|-----------------------------------|

    C#|-------------------------------------|
    G#|-------------------------------------|
GTR  E|----------------17-17-16-19-17-16-17-|
 2   B|-3-3--3-3--3-3-----------------------|
    F#|-2-2--2-2--2-2--15-15-14-17-15-14-15-|
    C#|-0-0--0-0--0-0-----------------------|

    C#|-----------------------------------|
    G#|-----------------------------------|
GTR  E|-1414141414141414-1212121212121212-|
 1   B|-----------------------------------|
    F#|-1212121212121212-1010101010101010-|
    C#|-----------------------------------|

    C#|--------------------------------------------|
    G#|--------------------------------------------|
GTR  E|--------------------------------------------|
 2   B|-3-3--3-3--3-3----------------10101010-9999-|
    F#|-2-2--2-2--2-2--10101010-9999---------------|
    C#|-0-0--0-0--0-0------------------------------|

    C#|-----------------------------------|
    G#|-----------------------------------|
GTR  E|-1616161616161616-1414141414141414-|
 1   B|-----------------------------------|
    F#|-1414141414141414-1212121212121212-|
    C#|-----------------------------------|

    C#|-------------------------------------------------|
    G#|-------------------------------------------------|
GTR  E|---------------12-12-12-1111111-1414141414141414-|
 2   B|-------------------------------------------------|
    F#|-2-2--2-2--2-2-10101010-9-9-9-9-1212121212121212-|
    C#|-0-0--0-0--0-0-----------------------------------|

    C#|-----------------------------------|
    G#|-----------------------------------|
GTR  E|-1212121212121212-1111111111111111-|
 1   B|-----------------------------------|
    F#|-1010101010101010-9-9-9-9-9-9-9-9--|
    C#|-----------------------------------|

    C#|---------------------------------|
    G#|---------------------------------|
GTR  E|----------------1111111111111111-|
 2   B|---------------------------------|
    F#|-2-2--2-2--2-2--9-9-9-9-9-9-9-9--|
    C#|-0-0--0-0--0-0-------------------|

    C#|-----------------------------------|
    G#|-----------------------------------|
GTR  E|-1717171717171717-1616161616161616-|
 1   B|-----------------------------------|
    F#|-1515151515151515-1414141414141414-|
    C#|-----------------------------------|

    C#|---------------------------------------------------|
    G#|---------------------------------------------------|
GTR  E|----------------12121212-11111111-1717171717171717-|
 2   B|-3-3--3-3--3-3-------------------------------------|
    F#|-2-2--2-2--2-2--10101010-9-9-9-9--1515151515151515-|
    C#|-0-0--0-0--0-0-------------------------------------|

    C#|-----------------------------------|
    G#|-----------------------------------|
GTR  E|-1414141414141414-1212121212121212-|
 1   B|-----------------------------------|
    F#|-1212121212121212-1010101010101010-|
    C#|-----------------------------------|

    C#|--------------------------------------------|
    G#|--------------------------------------------|
GTR  E|--------------------------------------------|
 2   B|-3-3--3-3--3-3----------------10101010-9999-|
    F#|-2-2--2-2--2-2--10101010-9999---------------|
    C#|-0-0--0-0--0-0------------------------------|

    C#|--------------|
    G#|--------------|
GTR  E|--------------|
1+2  B|-2------------|
    F#|-2-(Let ring)-|
    C#|-0------------|

    C#|----------------------------------------|
    G#|----------------------------------------|
GTR  E|-16-16-16-16-17-17-14-14-14-14-11-14-14-|
1+2  B|----------------------------------------|
    F#|-14-14-14-14-15-15-12-12-12-12-9--12-12-|
    C#|----------------------------------------|

    C#|-------------------------------------------|
    G#|-------------------------------------------|
GTR  E|-16-16-16-16-16-16-14-14-14-14-14-14-14-14-|
 1   B|-------------------------------------------|
    F#|-14-14-14-14-14-14-12-12-12-12-12-12-12-12-|
    C#|-------------------------------------------|

    C#|------------------------------------------------------|
    G#|-13-13-13-13-13-13------------------------------------|
GTR  E|-16-16-16-16-16-16-12121212-11111111-1717171717171717-|
 2   B|------------------------------------------------------|
    F#|-------------------10101010-9-9-9-9--1515151515151515-|
    C#|------------------------------------------------------|

    C#|-------------------------------------------------|
    G#|-------------------------------------------------|
GTR  E|-12-12-12-12-12-12-12-12-11-11-11-11-11-11-11-11-|
 1   B|-------------------------------------------------|
    F#|-10-10-10-10-10-10-10-10-9--9--9--9--9--9--9--9--|
    C#|-------------------------------------------------|

    C#|---------------------------------------------------------------------|
    G#|---------------------------------------------------------------------|
GTR  E|-121212-111111-141414-121212-19191919-16161616-14141414-191919191919-|
 2   B|---------------------------------------------------------------------|
    F#|-101010-9-9-9--121212-101010-17171717-14141414-12121212-171717171717-|
    C#|---------------------------------------------------------------------|

    C#|-------------------------------------|
    G#|-------------------------------------|
GTR  E|-16-16-16-16-16-16-14-14-14-14-14-14-|
 1   B|-------------------------------------|
    F#|-14-14-14-14-14-14-12-12-12-12-12-12-|
    C#|-------------------------------------|

    C#|------------------------------------------------------|
    G#|------------------------------------------------------|
GTR  E|-16-16-16-16-16-16-16161616-14141414-1717171717171717-|
 2   B|------------------------------------------------------|
    F#|-14-14-14-14-14-14-14141414-12121212-1515151515151515-|
    C#|------------------------------------------------------|

    C#|----------------------------------------|
    G#|----------------------------------------|
GTR  E|-19-19-19-19-19-19-19-14-14-14-14-14-14-|
 1   B|----------------------------------------|
    F#|-17-17-17-17-17-17-17-12-12-12-12-12-12-|
    C#|----------------------------------------|

    C#|--------------------------------------------|
    G#|--------------------------------------------|
GTR  E|-18/19-18/19-19-17--16-16-16-14-17-16-16-16-|
 2   B|--------------------------------------------|
    F#|-16/17-16/17-17-15--14-14-14-12-15-14-14-14-|
    C#|--------------------------------------------|

    C#|-------------------------------------------|
    G#|-------------------------------------------|
GTR  E|-16-16-16-16-16-16-14-14-14-14-14-14-14-14-|
 1   B|-------------------------------------------|
    F#|-14-14-14-14-14-14-12-12-12-12-12-12-12-12-|
    C#|-------------------------------------------|

    C#|------------------------------------------------------|
    G#|-13-13-13-13-13-13------------------------------------|
GTR  E|-16-16-16-16-16-16-12121212-11111111-1717171717171717-|
 2   B|------------------------------------------------------|
    F#|-------------------10101010-9-9-9-9--1515151515151515-|
    C#|------------------------------------------------------|

    C#|-------------------------------------------------------|
    G#|-------------------------------------------------------|
GTR  E|-16-16-16-16-16-16-12-12-12-12-12-12-12-12-12-12-12-12-|
 1   B|-------------------------------------------------------|
    F#|-14-14-14-14-14-14-10-10-10-10-10-10-10-10-10-10-10-10-|
    C#|-------------------------------------------------------|

    C#|-------------------------------------------------------|
    G#|-------------------------------------------------------|
GTR  E|-17-16-19-17-16-16-12-12-12-12-12-12-12-12-12-12-12-12-|
 2   B|-------------------------------------------------------|
    F#|-15-14-17-15-14-14-10-10-10-10-10-10-10-10-10-10-10-10-|
    C#|-------------------------------------------------------|


    C#|-------------------------------------------|
    G#|-------------------------------------------|
GTR  E|-16-16-16-16-16-16-14-14-14-14-14-14-14-14-|
 1   B|-------------------------------------------|
    F#|-14-14-14-14-14-14-12-12-12-12-12-12-12-12-|
    C#|-------------------------------------------|

    C#|------------------------------------------------------|
    G#|-13-13-13-13-13-13------------------------------------|
GTR  E|-16-16-16-16-16-16-12121212-11111111-1717171717171717-|
 2   B|------------------------------------------------------|
    F#|-------------------10101010-9-9-9-9--1515151515151515-|
    C#|------------------------------------------------------|

    C#|--------------|
    G#|--------------|
GTR  E|--------------|
1+2  B|-2------------|
    F#|-2-(Let ring)-|
    C#|-0------------|
Добавлено: 19.06.2013
Другие материалы по этой песне:
  • Аккорды и текст

Страница создана 19.06.2013
http://primanota.ru/june-paik/aleska-chords.htm
Привет, Гость.
Предлагаем пройти революционный курс по гитаре.
Подарок от PrimaNota.Ru, забирай!