PrimaNota.ru - самый крупный в мире бесплатный архив песенных текстов, аккордов, табулатур и нот


June Divided - Bullet - таба, видео

Регистрация Запомнить меня
Войти через:  Facebook Google Twitter Vk Yandex Mail.ru

June Divided - Bullet - таба, видео

Печатать
Просмотров: 78
Main riff.

E|-------------------------------------|
B|-------------------------------------|
G|-------------------------------------|
D|-------5-------7-------7---7---7/9---|
A|---7-7---7-5-5---5-0-0---0---0-------|
E|-------------------------------------|

Pre-Chorus

E|---0-0-0--------------------------      |            ---------0-|
B|---0-0-0--------------------------      |            ---------0-|
G|---1-1-1-----------5-5-5---5-5-5--      |            -5-------1-|
D|---2-2-2---5-5-5---5-5-5---5-5-5--  x3  |   on 4th   -5-  x8  2-|
A|---2-2-2---5-5-5---3-3-3---3-3-3--      |            -3-------2-|
E|---0-0-0---3-3-3------------------      |            ---------0-|

Chorus

E|-----------------------------------|           
B|-----------------------------------|
G|---9-----7-------------------------|
D|---9-x4--7-x4--7-----5-----7-------|
A|---7-----5-----7-x8--5-x8--7--x8---|
E|---------------5-----3-----5-------|

sometimes does 

E|-----------------------------------|
B|-----------------------------------|
G|--9-----7------------7-------------|
D|--9-x4--7-x4--7------7-x8--7-------|
A|--7-----5-----7--x8--5-----7--x8---|
E|--------------5------------5-------|

Solo


E|------------------------------------------------- |
B|--------------15-15-15-12-12-12------------------ |
G|--------12----------------------12-12-11-11-11-11 |  2nd ------11-11-11-12-12r
D|--12h14----14------------------------------------ |
A|------------------------------------------------- |
E|------------------------------------------------- |

E|-------------------------------------------------------------------------------|
B|--------------15-15-15-10-10-10-12-12-12-12-12-----13-13-13-13-12-12-12-12-----|
G|--------12-------------------------------------13------------------------------|
D|--12h14----14----------------------------------14-x8---------------------------|
A|-------------------------------------------------------------------------------|
E|-------------------------------------------------------------------------------|

E|--15--14------------15--14------------15--14------------15--14--15--14-15-14-15--------------------------|
B|----------12--10------------15--10------------15--10-----------------------------------------------------|
G|---------------------------------------------------------------------------------------------------------|
D|---------------------------------------------------------------------------------------------------------|
A|---------------------------------------------------------------------------------------------------------|
E|---------------------------------------------------------------------------------------------------------|

Chorus.

This last chorus has a lot of variation, so I'll just do the entire chorus in chronological order.

(You aim to pierce the hea-art)
E|-----------------------------------------|
B|-----------------------------------------|
G|-----------------------7------5-----7 ---|
D|-----------------------7-x16--5-x8--7-x8-|
A|-----------------------5------3-----5 ---|
E|-----------------------------------------|

E|-----------------------------------|
B|-----------------------------------|
G|--9-----7------------7-------------|
D|--9-x4--7-x4--7------7-x8--7-------|
A|--7-----5-----7--x8--5-----7--x8---|
E|--------------5------------5-------|

E|-----------------------------------|         
B|-----------------------------------|
G|---9-----7-------------------------|
D|---9-x4--7-x4--7-----10-----9------|
A|---7-----5-----7-x8--10-x8--9-x8---|
E|---------------5---- 8------7------|

E|-----------------------------------|           
B|-----------------------------------|
G|---9-----7-------------------------|
D|---9-x4--7-x4--7-----5-----7-------| 
A|---7-----5-----7-x8--5-x8--7--x8---|
E|---------------5-----3-----5-------|

E|----------------------------------------|        
B|----------------------------------------|
G|---9-----7------------------------------|
D|---9-x4--7-x4--7-------10-----5-----7-0-|
A|---7-----5-----7-x8----10-x4--5-x4--7-x8|
E|---------------5-------8------3-----5---|

E|-------------------------------------|          
B|-------------------------------------|
G|---9-----7-------------9-----7----5--|
D|---9-x4--7-x4--7-------9-x8--7-x8-5--|
A|---7-----5-----7-x8----7-----5----3--|
E|---------------5---------------------|


To see my cover of the song go here -> https://www.youtube.com/watch?v=IVIldFq82i0
Добавлено: 24.07.2015
Другие материалы по этой песне:
  • Аккорды и текст

Страница создана 24.07.2015
http://primanota.ru/june-divided/bullet-chords.htm
Привет, Гость.
Предлагаем пройти революционный курс по гитаре.
Подарок от PrimaNota.Ru, забирай!