PrimaNota.ru - самый крупный в мире бесплатный архив песенных текстов, аккордов, табулатур и нот


Jumping Pop-in - The Silly Chap - бас-таба, видео

Регистрация Запомнить меня
Войти через:  Facebook Google Twitter Vk Yandex Mail.ru

Jumping Pop-in - The Silly Chap - бас-таба, видео

Печатать
Просмотров: 49
Уроки эстрадного вокала в Санкт-Петербурге
Tabbed by: 6METAL6BASSIST6
E-mail: petergriffinav@gmail.com

Tuning: EADG

G|----------------------------------------------------------------|.
D|4-----------4---4---------------4-----------4---4---------------|.
A|----------------------------------------------------------------|.
E|----------------------------------------------------------------|.
                                                                   . x2
G|----------------------------------------------------------------|.
D|4-----------4---2---------------4-----------4---4---------------|.
A|----------------------------------------------------------------|.
E|----------------------------------------------------------------|.

0:17

G|----------------------------------------------------------------|.
D|4-----------4---4---------------4-----------4---4---------------|.
A|----------------------------------------------------------------|.
E|----------------------------------------------------------------|.
                                                                   . x4
G|----------------------------------------------------------------|.
D|4-----------4---2---------------4-----------4---4---------------|.
A|----------------------------------------------------------------|.
E|----------------------------------------------------------------|.

G|----------------------------------------------------------------|
D|4-----------4---4---------------4-----------4---4---------------|
A|----------------------------------------------------------------|
E|----------------------------------------------------------------|

0:54

G|----------------------------------------------------------------|
D|----------------------------------------------------------------|
A|4---4---4---4---4---4---4---4---4---4---4---4---4---4---4---4---|
E|----------------------------------------------------------------|

G|----------------------------------------------------------------|
D|4---4---4---4---4---4---4---4---4---4---4---4---4---4---4---4---|
A|----------------------------------------------------------------|
E|----------------------------------------------------------------|

G|----------------------------------------------------------------|
D|----------------------------------------------------------------|
A|2---2---2---2---2---2---2---2---2---2---2---2---2---2---2---2---|
E|----------------------------------------------------------------|

G|----------------------------------------------------------------|
D|4---4---4---4---4---4---4---4---4---4---4---4---4---4---4---4---|
A|----------------------------------------------------------------|
E|----------------------------------------------------------------|

1:10

G|----------------------------------------------------------------|
D|----------------------------------------------------------------|
A|4---4---4---4---4---4---4---4---4---4---4---4---4---4---4---4---|
E|----------------------------------------------------------------|

G|----------------------------------------------------------------|
D|4---4---4---4---4---4---4---4---4---4---4---4---4---4---4---4---|
A|----------------------------------------------------------------|
E|----------------------------------------------------------------|

G|----------------------------------------------------------------|
D|----------------------------------------------------------------|
A|2---2---2---2---2---2---2---2---2---2---2---2---2---2---2---2---|
E|----------------------------------------------------------------|

G|----------------------------------------------------------------|
D|----------------------------------------------------------------|
A|4---4---4---4---4---4---4---4---4---4---4---4---4---4---4---4---|
E|----------------------------------------------------------------|

1:26

G|----------------------------------------------------------------|.
D|4-----------4---4---------------4-----------4---4---------------|.
A|----------------------------------------------------------------|.
E|----------------------------------------------------------------|.
                                                                   . x2
G|----------------------------------------------------------------|.
D|4-----------4---2---------------4-----------4---4---------------|.
A|----------------------------------------------------------------|.
E|----------------------------------------------------------------|.

1:43

G|----------------------------------------------------------------|.
D|4-----------4---4---------------4-----------4---4---------------|.
A|----------------------------------------------------------------|.
E|----------------------------------------------------------------|.
                                                                   . x4
G|----------------------------------------------------------------|.
D|4-----------4---2---------------4-----------4---4---------------|.
A|----------------------------------------------------------------|.
E|----------------------------------------------------------------|.

2:16

G|----------------------------------------------------------------|
D|4-----------4---4---------------4-----------4-------------------|
A|------------------------------------------------2---------------|
E|----------------------------------------------------------------|

G|----------------------------------------------------------------|
D|4-----------4---2---------------4-----------4---4---------------|
A|--------------------------------------------------------4-------|
E|----------------------------------------------------------------|

G|----------------------------------------------------------------|
D|2-----------2---2---------------4-----------4---4---------------|
A|------------------------2-------------------------------4-------|
E|----------------------------------------------------------------|

G|----------------------------------------------------------------|
D|2-----------2---2-------6-------4-------------------------------|
A|----------------------------------------------------------------|
E|----------------------------------------------------------------|
Добавлено: 27.06.2016
Другие материалы по этой песне:
  • Аккорды и текст

Страница создана 27.06.2016
http://primanota.ru/jumping-pop-in/silly-chap-chords.htm
Привет, Гость.
Предлагаем пройти революционный курс по гитаре.
Подарок от PrimaNota.Ru, забирай!