PrimaNota.ru - самый крупный в мире бесплатный архив песенных текстов, аккордов, табулатур и нот


Jump Little Children - Say Goodnight - аккорды и текст, видео

Регистрация Запомнить меня
Войти через:  Facebook Google Twitter Vk Yandex Mail.ru

Jump Little Children - Say Goodnight - аккорды и текст, видео

Печатать
Просмотров: 113
Say Goodnight
Jump Little Children
Chords Used:
E|---6---|--3--|---3---|--2---|--1--|--0--|---0---|--0--|--2--|
B|---8---|--3--|---3---|--3---|--1--|--0--|---3---|--2--|--3--|
G|---7---|--4--|---3---|--2---|--2--|--1--|---2---|--2--|--2--|
D|---8---|--5--|---5---|--0---|--3--|--2--|---0---|--2--|--0--|
A|-------|--5--|---5---|-(x)--|--3--|--2--|-------|--0--|-----|
E|-------|--3--|---3---|--2---|--1--|--0--|-------|-----|-----|
   Gm(1) |  G  | Gm(2) | D/F# |  F  |  E  | Dsus2 |  A  |  D  |



 [Riff 1A]
E|---0--2--3---3--3---6--6---|
B|---3--3--3---3--3---8--8---|
G|------2--3---3--3---7--7---|
D|---------4---4--4---8--8---|
A|---------------------------|
E|---------------------------|

 [Riff 1B]
E|---0--2--3---6-------------|
B|---3--3--3---8-------------|
G|------2--3---7-------------|
D|---------4---8-------------|
A|---------------------------|
E|---------------------------|

 [Riff 2]
E|------------------------------------------|
B|------------------------------------------|
G|---7-7-7-7--7-7-6-6--5-5-5-5--5-5-5-5-----|
D|---7-7-7-7--7-7-7-7--7-7-7-7--7-7-7-7-----|
A|---5-5-5-5--5-5-5-5--5-5-5-5--5-5-5-5-----|
E|------------------------------------------|



  [Riff 1A]
I heard you late last night
             [Riff 1B]
You know you talk too much
    [Riff 1A]
Not everything comes through these walls
    [Riff 1A]
But just enough
   Gm(1)                               [Riff 1A] [Riff 1B]
To hear the things that I don't want to hear


  [Riff 1A]
I heard you late last night
         [Riff 1B]
I wish I had my distance
  [Riff 1A]
I hear you crash around and say
     [Riff 1B]
That no one listens
  Gm(1)                              [Riff 2]
I wish that I could hear you say goodnight


           G
But nobody cares
           Gm(2)
Especially me
                  D/F#
But I can't help myself
           F
As I fall asleep


                E
To turn out the lights
              Dsus2
Turn back the sheets
        A                 E
Say goodnight and turn me on
             E
Turn out the lights
              Dsus2
Turn back the sheets
        A     F
Turn me on


[Riff 1A] [Riff1B]


  [Riff 1A] 
I heard you late last night
            [Riff 1B]
You were in such a hurry
[Riff 1A]
Not a sound behind these walls
[Riff 1B]
Makes me worry
  Gm(1)                              [Riff 2]
I wish that I would hear you say goodnight


           G
But nobody cares
           Gm(2)
Especially me
                  D/F#
But I can't help myself
           F
As I fall asleep

       
                E
To turn out the lights
              Dsus2
Turn back the sheets
        A                 E
Say goodnight and turn me on
             E
Turn out the lights 
              Dsus2
Turn back the sheets
        A    F
Turn me on


D        Gm(1)
Say goodnight
        [Riff 1B]
Say goodnight
        [Riff 1A]
Say goodnight
        [Riff 2]
Say goodnight


           G
But nobody cares
           Gm(2)
Especially me
                  D/F#
But I can't help myself
          F
As I fall asleep


                E
To turn out the lights 
    Dsus2
Turn back the sheets
        A                 E
Say goodnight and turn me on
             E
Turn out the lights
    Dsus2
Turn back the sheets
        A
Turn me on
     E
Yeah yeah


   E
La la la
   Dsus2
La la la
   A               E
La la la la la la la 

   E
La la la
   Dsus2
La la la
   A               E 
La la la la la la la


             E
Turn out the lights 
    Dsus2
Turn back the sheets
        A  F
Turn me on


     [Riff 1B]
Yeah yeah yeah yeah
     D
Yeah yeah
Добавлено: 12.06.2012
Другие материалы по этой песне:
  • Аккорды и текст

Страница создана 07.05.2012
http://primanota.ru/jump-little-children/say-goodnight-chords.htm
Привет, Гость.
Предлагаем пройти революционный курс по гитаре.
Подарок от PrimaNota.Ru, забирай!