PrimaNota.ru - самый крупный в мире бесплатный архив песенных текстов, аккордов, табулатур и нот


July Talk - Ive Rationed Well - таба, видео

Регистрация Запомнить меня
Войти через:  Facebook Google Twitter Vk Yandex Mail.ru

July Talk - Ive Rationed Well - таба, видео

Печатать
Просмотров: 116
Уроки эстрадного вокала в Санкт-Петербурге
Авторы музыки: Josh Warburton, Peter Dreimanis
Авторы текста: Kira Dreimanis, Peter Dreimanis
-------------------------------------------------------------------------------
                             I've Rationed Well - July Talk
-------------------------------------------------------------------------------
Tabbed by: Matt Cameron
Shoutout to one of the best Toronto bands July Talk!!

Tuning: Drop D

   |--------------------D------------------|
e|---------------------------------------------------------------------------|
B|---------------------------------------------------------------------------|
G|---------------------------------------------------------------------------|
D|----0----0-----0----0----0----0----0----0----------------------------------|
A|---------------------------------------------------------------------------|
D|--0----0----0----0----0----0----0----0-------------------------------------|

   |--------C---------|
e|---------------------------------------------------------------------------|
B|---------------------------------------------------------------------------|
G|---------------------------------------------------------------------------|
D|----2----2----2----2-------------------------------------------------------|
A|--3----3----3----3---------------------------------------------------------|
D|---------------------------------------------------------------------------|

   |-------B----------|
e|---------------------------------------------------------------------------|
B|---------------------------------------------------------------------------|
G|---------------------------------------------------------------------------|
D|----0----0----0----0-------------------------------------------------------|
A|--2----2----2----2---------------------------------------------------------|
D|---------------------------------------------------------------------------|


Intro: D x4

      D
As I walk to where I used to live
           C     B         D
I try to remind myself of you


     C
Telling lies
     B
Felt right
     D
Around you
  

              D
Then I met a whiskey and I moved across town
                C            B         D
Away from the river and the girls and you

        C
I was young
        B
High-strung
       D
Over you

                   D
And now comes the time

That I need you the most
                 C
But I'm across town
     B                D
And time will do us well

         C                 B
We'll survive by telling lies
                 D
We've rationed well

         C                 B
We'll survive by telling lies
                 D
We've rationed well

         C                 B
We'll survive by telling lies
                 D
We've rationed well



**************************************
Thanks guys, have fun jamming :)

Sincerely
-Matt cameron

Добавлено: 21.11.2015
Другие материалы по этой песне:
  • Аккорды и текст

Страница создана 21.11.2015
http://primanota.ru/july-talk/ive-rationed-well-chords.htm
Привет, Гость.
Предлагаем пройти революционный курс по гитаре.
Подарок от PrimaNota.Ru, забирай!