PrimaNota.ru - самый крупный в мире бесплатный архив песенных текстов, аккордов, табулатур и нот


July For Kings - Meteor Flower - текст песни, таба, видео

Регистрация Запомнить меня
Войти через:  Facebook Google Twitter Vk Yandex Mail.ru

July For Kings - Meteor Flower - текст песни, таба, видео

Печатать
Просмотров: 158
Уроки эстрадного вокала в Санкт-Петербурге
Band:July For Kings
Song:Meteor Flower
Tuning:Drop D w/capo 1e|---0-----0--------- 0----------------------0------0---------0----------------|
B|-----0-----0----------0----------------------0------0---------0--------------|
G|-----------------------------------------------------------------------------|
D|----------------------------2p0----------0-------------------------2--/4--7--|
A|-------4-----0h4--2-----2h4-----4h5p4p0--0------4-----0h4--2----/4-----------|
D|-0---------------------------------------0-----------------------------------|


e|---0-----0--------- 0----------------------0------0---------0---------0------|
B|-----0-----0----------0----------------------0------0---------0-------0------|
G|-----------------------------------------------------------------------------|
D|----------------------------2p0----------0-----------------------------------|
A|-------4-----0h4--2-----2h4-----4h5p4p0--0------4-----0h4--2----2---2--------|
D|-0---------------------------------------0------------------------2----------|


I think I want to fly away with you but for now I'm afraid...
e|--3-----2-----0-----0-----|
B|--3-----3-----3-----2-----|
G|--2-----2-----2-----2-----|
D|--0-----0-----2-----2-----|
A|--0-----0-----0-----0-----|
D|--0-----0-----------------|

Write our names across the galaxy, meteor flower...
e|--0---0---0-----------|
B|--3---0---0-----------|
G|--2---6---4-----------|
D|--0---4---2-----------|
A|--0---4---2-----------|
D|--0---4---2-----------|
Добавлено: 22.07.2012
Вам также может быть интересно:
Другие материалы по этой песне:
  • Аккорды и текст

Страница создана 18.04.2012
http://primanota.ru/july-for-kings/meteor-flower-chords.htm
Привет, Гость.
Предлагаем пройти революционный курс по гитаре.
Подарок от PrimaNota.Ru, забирай!