PrimaNota.ru - самый крупный в мире бесплатный архив песенных текстов, аккордов, табулатур и нот


July For Kings - Champagne - текст песни, таба, видео

Регистрация Запомнить меня
Войти через:  Facebook Google Twitter Vk Yandex Mail.ru

July For Kings - Champagne - текст песни, таба, видео

Печатать
Просмотров: 113
"Champagne"
by July For Kings

tabbed by Ian Strascina - istrasci@nmsu.edu

Feel free to email me with any comments

-----------------------------------------------------------------

Key - Em (?)

Tuning - standard


Chords:

    Am7   Am7/B   Cadd9   D   Dadd9   D(X)
e|---0------0-------3-----2-----0------10---|
B|---1------1-------3-----3-----3------10---|
G|---0------0-------0-----2-----2------11---|
D|---2------2-------2-----0-----0------12---|
A|---0------2-------3-----------------------|
E|------------------------------------------|


      Em7   Em7(1/2)   Em9   G/B   G
e|-----3-------3--------2-----X----3--------|
B|-----3-------3--------3-----3----3--------|
G|-----0-------X--------X-----0----0--------|
D|-----2-------2--------2-----0----0--------|
A|-----2----------------------2----2--------|
E|-----0---------------------------3--------|

-----------------------------------------------------------------

Legend:
        /// = long slide up
        h = hammer on
        p = pull off


Intro & verse riff:


  Em7(1/2)-Em9        G/B      Cadd9
e|------3-2---------------------------------------------------------|
B|----3--3-3------------3-------3-----------------------------------|
G|-----------------------0-------0------0---------------------------|
D|--2---------2h4p2-----------------0h2-----------------------------|
A|------------------3-2-----2h3-------------------------------------|
E|------------------------------------------------------------------|


*** (Beautiful dream...) - strum same chords - Em7pEm9hEm7  G/B  Cadd9 (x2)


(Verse I: verse riff - above)
I want to dream you
A beautiful dream
I want to hold you
In the dark
It would seem
That no one sees me like you do
And no one moves the way you move
And I can't see anything else
I want to take you now  ( Dadd9 - let ring )

Honestly, you're killing me.


Chorus:
               Cadd9
We're drinking cheap


Champagne

  G
Alone in my room

       D
Drinking


Your name, you wear my favorite perfume

Cadd9
Cheap champagne

    G
The flowers in bloom

       D
Drinking


Your name


Champagne  --  same chords as *** above


Champagne


(Verse II -- strum each chord only once or twice, listen to song)

If I was stronger
I'd take down the moon
We could hang it up
An the corner of your bedroom
And if at night you could not sleep
You could watch it shine
Like counting sheep
And only I'll know where the moon has gone.

I want to take you now.

               D(X)
Honestly, you're killing me.

Chorus:
We're drinking cheap
Champagne
Alone in my room
Drinking
Your name, you wear my favorite perfume
Cheap champagne
The flowers in bloom
Drinking your name
Champagne


(Bridge - each chord once)

Cadd9              G
Sitting on the floor of a spinning room

D                   Em7
The morning sun won't be coming too soon

*****
It's the way you look in that dress

        Cadd9            G
There's nothing I can taste that compares to you

    D                 Em7
And nothing I can say that's quite as true
*****
As the gift you are, I'll confess...

------------------------------------------------------------
For *****, pick these chords:

    Am7       Am7/B    C     Cadd9
e|-------0--------0-----------3-------------|
B|-----1--------1----------1--3-------------|
G|------------------------------------------|
D|---2--------2----------2------------------|
A|-0--------2----------3--------------------|
E|------------------------------------------|

------------------------------------------------------------

That I... I...
I want to  (intro riff again)
Dream you
A beautiful dream
I want to hold you
In the dark
It would seem
That no one sees me like you do
And no one moves the way you move
And I can't see anything else


Champagne with you in my room
Drinking
Your name, you wear my favorite perfume
Cheap champagne
The flowers in bloom
Drinking
Your name
Champagne
Cheap champagne with you in my room
Drinking
Your name, you wear my favorite perfume
Champagne
The flowers in bloom
Drinking
Your name
Champagne
Champagne ^^

^^
e|------------------------------------------|
B|---3///8----------------------------------|
G|------------------------------------------|
D|------------------------------------------|
A|------------------------------------------|
E|------------------------------------------|
Добавлено: 05.05.2012
Другие материалы по этой песне:
  • Аккорды и текст

Страница создана 05.05.2012
http://primanota.ru/july-for-kings/champagne-chords.htm
Привет, Гость.
Предлагаем пройти революционный курс по гитаре.
Подарок от PrimaNota.Ru, забирай!