PrimaNota.ru - самый крупный в мире бесплатный архив песенных текстов, аккордов, табулатур и нот


Хулио Сальвадор Сагрегас - El Colibri - таба, видео

Регистрация Запомнить меня
Войти через:  Facebook Google Twitter Vk Yandex Mail.ru

Хулио Сальвадор Сагрегас - El Colibri - таба, видео

Печатать
Просмотров: 269
Авторы музыки: Julio Salvador Sagreras

El Colibri - Julio S. Sagreras (1879-1942)
*********************************************************************
1st version - by Luis Quinta
2nd version - by James McKaskle (Ricordi Americana, 1954)
*********************************************************************

El Colibri - Julio S Sagreras (1879-1942)

Tab by Luнs Quinta "lsq7@hotmail.com"

Tuning : E A D G B E   -   Time Signature: 2/4


 |       |        |       |        |       |        |       |        
|----------------|----------------|--0-0-0-0-0-0-0-|------0-------0-|
|----------------|----------------|0---------------|4-------3-------|
|----------------|------------2-1-|----------------|--4-0-----4-0---|
|--2-2-2-2-2-2-2-|4h2-1-2-4-5-----|----------------|----------------|
|2---------------|----------------|----------------|----------------|
|0---------------|----------------|----------------|----------------|

 |       |        |       |        |       |        |       |        
|------0-------0-|------0-------0-|------0-------0-|----2---9-9-9-9-|
|2-------1-------|0---------0-----|--0-------0-----|--5---5---------|
|--4-------4-----|--4-----4-------|3-------4-------|3---------------|
|----5-------5---|----5-------5---|----5-------5---|----------------|
|----------------|----------------|----------------|----------------|
|----------------|----------------|----------------|----------------|

 |       |        |       |        |       |        |       |        
|12111010109-8-8-|9-7-7-7-7-7-7-7-|14111010109-8-8-|9p7-7-7-7-7-7-7-|
|----------------|----------------|----------------|----------------|
|----------------|----------------|----------------|----------------|
|----------------|----------------|----------------|----------------|
|9-------9-------|----------------|--------9-------|----------------|
|----------------|7---------------|14--------------|7---------------|

 |       |        |       |        |       |        |       |        
|--19191919191919|19--------------|----------------|----------------|
|12--------------|--12121212121212|12--------------|----------------|
|----------------|----------------|--4-4-4-4-4-4-4-|4---------------|
|----------------|----------------|----------------|----------------|
|----------------|----------------|----------------|--2-2-2-2-2-2-2-|
|----------------|----------------|----------------|----------------|

 |       |        |       |        |       |        |       |        
|----------------|----------------|--0-0-0-0-0-0-0-|------0-------0-|
|----------------|----------------|0---------------|4-------3-------|
|----------------|------------2-3-|----------------|--4-0-----4-----|
|--2-2-2-2-2-2-2-|4p2---2-4-5-----|----------------|------------5---|
|2---------------|----4-----------|----------------|----------------|
|0---------------|----------------|----------------|----------------|

 |       |        |       |        |       |        |       |        
|------0-------0-|------0-------0-|------0-------0-|--0-2-0-9-9-9-9-|
|2-------1-------|0---------0-----|--0-------0-----|----------------|
|--4-------4-----|--4-----3-------|3-------4-------|3---------------|
|----5-------5---|----5-------4---|----4-------5---|----------------|
|----------------|----------------|----------------|----------------|
|----------------|----------------|----------------|----------------|

 |       |        |       |        |       |        |       |        
|12101010109-9-9-|9p7-7-7-7-7-7-7-|12101010109-9-9-|9p7-7-7-7-8-8-8-|
|----------------|----------------|----------------|----------------|
|----------------|----------------|----------------|----------------|
|----------------|----------------|----------------|----------------|
|9-------9-------|----------------|9-------9-------|----------------|
|----------------|7---------------|----------------|7---------------|

 |       |        |       |        |       |        |       |        
|8-5-5-5-5-7-7-7-|7-3-3-3-3-5-5-5-|5p2-2-2-2-3-3-3-|2-0-0-0-0-0-0-0-|
|----------------|----------------|----------------|1---------------|
|----------------|----------------|----------------|0---------------|
|----------------|----------------|----------------|----------------|
|----------------|----------------|----------------|----------------|
|5---------------|3---------------|2---------------|0---------------|


|       |        |       |        |       |        |       |        
|0---0-2-3-4-5-7-|8-8-8-8-8-8-108-|7-7-7-7-7-7-8p7-|5-5-5-5-5-5-7p5-|
|--4-------------|5---------------|7---------------|4---------------|
|----------------|----------------|----------------|----------------|
|----------------|--------7-------|--------5-------|--------4-------|
|----------------|----------------|----------------|----------------|
|----------------|----------------|----------------|----------------|

 |       |        |       |        |       |        |       |        
|3-3-3-3-3-3-5p3-|2-2-2-2-2-2-3p2-|0-0-0-0-0-0-2-0-|----------------|
|5---------------|3---------------|1---------------|4-0-0-0-0-0-0-0-|
|----------------|----------------|----------------|----------------|
|--------2-------|--------0-------|----------------|----------------|
|----------------|----------------|--------0-------|2---------------|
|----------------|----------------|----------------|----------------|

 |       |        |       |        |       |        |       |        
|----------------|----------------|----------------|----------------|
|0---------------|----------------|----------------|----------------|
|--3-2-1-0-------|----------------|----------------|----------------|
|----------4-3-2-|0-0-0-0-0-0-0-0-|1---------------|----------------|
|----------------|----------------|--4-3-2-1-0-----|----------------|
|----------------|----------------|------------4-3-|2-2-2-2-2-2-2-2-|

 |       |        |       |        |       |        |       |        
|----------------|----------------|----------------|----------------|
|----------------|----------------|----------------|----------------|
|----------------|----------------|----------------|----------------|
|----------------|----------------|1---------------|----------------|
|--2-2-2-2-2-2-2-|3p2-2-2-4p2-2-2-|--2-2-2-2-2-2-2-|3p2-2-2-2p1-1-1-|
|2---------------|----------------|----------------|----------------|

 |       |        |       |        |       |        |       |        
|0---0-2-3-4-5-7-|8-8-8-8-8-8-108-|7-7-7-7-7-7-8p7-|5-5-5-5-5-5-7p5-|
|--4-------------|5---------------|----------------|4---------------|
|----------------|----------------|7---------------|----------------|
|----------------|--------7-------|--------5-------|--------4-------|
|----------------|----------------|----------------|----------------|
|----------------|----------------|----------------|----------------|

 |       |        |       |        |       |        |       |        
|3-3-3-3-3-3-5p3-|2-2-2-2-2-2-3p2-|0-0-0-0-0-0-2p0-|----------------|
|5---------------|3---------------|1---------------|4-0-0-0-0-0-0-0-|
|----------------|----------------|----------------|----------------|
|--------2-------|--------0-------|----------------|----------------|
|----------------|----------------|--------3-------|2---------------|
|----------------|----------------|----------------|----------------|

 |       |        |       |        |       |        |       |        
|----------------|----------------|----------------|----------------|
|0---------------|----------------|----------------|----------------|
|--3-2-1-0-------|----------------|----------------|----------------|
|----------4-3-2-|1-1-1-1-1-1-1-1-|1---------------|----------------|
|----------------|----------------|--4-3-2-1-0-----|----------------|
|----------------|----------------|------------4-3-|2-2-2-2-2-2-2-2-|

 |       |        |       |        |       |        |       |        
|----------------|----------------|----------------|----------------|
|----------------|----------------|----------------|----------------|
|----------------|----------------|----------------|----------------|
|----------------|----------------|1---------------|----------------|
|--2-2-2-2-2-2-2-|3p2-2-2-4p2-2-2-|--2-2-2-2-2-2-2-|3-2-2-2-2-1-1-1-|
|2---------------|----------------|----------------|----------------|

 |       |        |       |        |       |        |       |        
|----------------|----------------|--0-0-0-0-0-0-0-|------0-------0-|
|----------------|----------------|0---------------|4-------3-------|
|----------------|----------0-1-2-|----------------|--5-0-----4-0---|
|--2-2-2-2-2-2-2-|4-2-1-2-4-------|----------------|----------------|
|2---------------|----------------|----------------|----------------|
|0---------------|----------------|0---------------|----------------|

 |       |        |       |        |       |        |       |        
|------0-------0-|------0-------0-|------0-------0-|--0-2-0-9-9-9-9-|
|2-------1-------|0---------0-----|--0-------0-----|----------------|
|--4-0-----4-0---|--4-0---3-------|3-------3-------|3---------------|
|----------------|------------5---|----5-------5---|----------------|
|----------------|----------------|----------------|----------------|
|----------------|----------------|----------------|----------------|

 |       |        |       |        |       |        |       |        
|14111111119-9-9-|9-7-7-7-7-7-7-7-|12111111119-9-9-|9-7-7-7-7-7-7-7-|
|----------------|----------------|----------------|----------------|
|----------------|----------------|----------------|----------------|
|----------------|----------------|----------------|----------------|
|--------9-------|----------------|9-------9-------|----------------|
|14--------------|7---------------|----------------|7---------------|

 |       |        |       |        |       |        |       |        
|--19191919191919|19--------------|----------------|------0-2-3-5-7-|
|12--------------|--12121212121212|120-0-0-0-0-0-0-|0-2-4-----------|
|----------------|----------------|----------------|----------------|
|----------------|----------------|----------------|----------------|
|----------------|----------------|----------------|----------------|
|----------------|----------------|----------------|----------------|

|       |        |       |        |       |        |       |        
|----------------|------------0-3-|7-----0-3-7-1215|19------7-------|
|----------------|----------0-----|----0-----------|--------7-------|
|----------------|--------0-------|--0-------------|----------------|
|----------------|------2---------|----------------|--------7-------|
|2-------0-------|----2-----------|----------------|----------------|
|--3-3-3---2-2-2-|0-3-------------|----------------|--------7-------|

 |       |               
|12--------------||
|12--------------||
|12--------------||
|----------------||
|----------------||
|12--------------||


*********************************************************************
*********************************************************************

From: james mckaskle - jmcka2@hotmail.com
Subject: Alternate El Clobri tab
Date: Thu, 07 Jun 2001 19:18:17 

This version of El Colibri was published 1954 by Ricordi Americana S.A.E.C.

p=pull off
s=slide
h=hammer on
R=16th note rest
<7>=harmonic at seventh fret


|-------------------------|-------------------------|
|-------------------------|-------------------------|
|-------------------------|-------------------------|
|-------------------------|-------------------7--8--|
|-2-s7--7--7--7--7--7--7--|-9-p7--6--7--9--10-------|
|-0-----------------------|-------------------------|


|-------------------------|----------0-----------0--|
|-------------------------|----0-----------0--------|
|-------------------------|-------0-----------0-----|
|-9s14-14-14-14-14-14-14--|-13----------12----------|
|-------------------------|-------------------------|
|-------------------------|-------------------------|


|----------0-----------0--|----------0-----------0--|
|----0-----------0--------|----0-----------0--------|
|-------0-----------0-----|-------0-----------0-----|
|-11----------10----------|-9-----------8-----------|
|-------------------------|-------------------------|
|-------------------------|-------------------------|


|----------0-----------0--|-------------9--9--9--9--|
|----0-----------0--------|-------7-----------------|
|-------0-----------0-----|----9-----9--------------|
|-8-----------9-----------|-8-----------------------|
|-------------------------|-------------------------|
|-------------------------|-------------------------|


|-12p11-11-11-11p9--9--9--|-9-p7--7--7--7--7--7--7--|
|-------------------------|-------------------------|
|-------------------------|-------------------------|
|-------------------------|-------------------------|
|-9-----------9-----------|-------------------------|
|-------------------------|-7-----------------------|


|-12p11-11-11-11p9--9--9--|-9-p7--7--7--7--7--7--7--|
|-------------------------|-------------------------|
|-------------------------|-------------------------|
|-------------------------|-------------------------|
|-9-----------9-----------|-------------------------|
|-------------------------|-7-----------------------|


|-7-s19-19-19-19-19-19-19-|-19s7--7--7--7--7--7--7--|
|-------------------------|-------------------------|
|-------------------------|-------------------------|
|-------------------------|-------------------------|
|-------------------------|-------------------------|
|-------------------------|-------------------------|


|-7-----------------------|-------------------------|
|----0--0--0--0--0--0--0--|-0-----------------------|
|-------------------------|-------------------------|
|-------------------------|-------------------------|
|-------------------------|----2--2--2--2--2--2--2--|
|-------------------------|-------------------------|


|-------------------------|-------------------------|
|-------------------------|-------------------------|
|-------------------------|-------------------------|
|-------------------------|-------------------7--8--|
|-2-s7--7--7--7--7--7--7--|-9-p7--6--7--9--10-------|
|-0-----------------------|-------------------------|


|-------------------------|----------0-----------0--|
|-------------------------|----0-----------0--------|
|-------------------------|-------0-----------0-----|
|-9s14-14-14-14-14-14-14--|-13----------12----------|
|-------------------------|-------------------------|
|-------------------------|-------------------------|


|----------0-----------0--|----------0-----------0--|
|----0-----------0--------|----0-----------0--------|
|-------0-----------0-----|-------0-----------0-----|
|-11----------10----------|-9-----------8-----------|
|-------------------------|-------------------------|
|-------------------------|-------------------------|


|----------0-----------0--|-------------9--9--9--9--|
|----0-----------0--------|-------7-----------------|
|-------0-----------0-----|----9-----9--------------|
|-8-----------9-----------|-8-----------------------|
|-------------------------|-------------------------|
|-------------------------|-------------------------|


|-12p10-10-10-10p9--9--9--|-9-p7--7--7--7--7--7--7--|
|-------------------------|-------------------------|
|-------------------------|-------------------------|
|-------------------------|-------------------------|
|-9-----------9-----------|-------------------------|
|-------------------------|-7-----------------------|


|-12p10-10-10-10p9--9--9--|-9-p7--7--7--7--8--8--8--|
|-------------------------|-------------------------|
|-------------------------|-------------------------|
|-------------------------|-------------------------|
|-9-----------9-----------|-------------------------|
|-------------------------|-7-----------------------|


|-8-p5--5--5--5--7--7--7--|-7-p3--3--3--3--5--5--5--|
|-------------------------|-------------------------|
|-------------------------|-------------------------|
|-------------------------|-------------------------|
|-------------------------|-------------------------|
|-5-----------------------|-3-----------------------|


|-5-p2--2--2--2--3--3--3--|-2-p0--0--0--0--0--0--0--|
|-------------------------|-1-----------------------|
|-------------------------|-0-----------------------|
|-------------------------|-------------------------|
|-------------------------|-------------------------|
|-2-----------------------|-0-----------------------|


|----------------------7--|-8--8--8--8--8--8--10p8--|
|----------7--8--9--10----|-------------------------|
|-9--8--9-----------------|-9-----------------------|
|-------------------------|-------------7-----------|
|-------------------------|-------------------------|
|-------------------------|-------------------------|


|-7--7--7--7--7--7--8-p7--|-5--5--5--5--5--5--7-p5--|
|-------------------------|-4-----------------------|
|-7-----------0-----------|-------------------------|
|-------------------------|-------------4-----------|
|-------------------------|-------------------------|
|-------------------------|-------------------------|


|-3--3--3--3--3--3--5-p3--|-2--2--2--2--2--2--3-p2--|
|-5-----------------------|-3-----------------------|
|-------------------------|-------------------------|
|-------------2-----------|-------------0-----------|
|-------------------------|-------------------------|
|-------------------------|-------------------------|


|-0--0--0--0--0--0--2-p0--|-------------------------|
|-1-----------------------|-4-p0--0--0--0--0--0--0--|
|-------------------------|-------------------------|
|-------------3-----------|-------------------------|
|-------------------------|-------------------------|
|-------------------------|-------------------------|


|-------------------------|-------------------------|
|-0-----------------------|-------------------------|
|----3--2--1--0-----------|-------------------------|
|----------------4--3--2--|-1--1--1--1--1--1--1--1--|
|-------------------------|-------------------------|
|-------------------------|-------------------------|


|-------------------------|-------------------------|
|-------------------------|-------------------------|
|-------------------------|-------------------------|
|-1-----------------------|-------------------------|
|----4--3--2--1--0--------|-------------------------|
|-------------------4--3--|-2--2--2--2--2--2--2--2--|


|-------------------------|-------------------------|
|-------------------------|-------------------------|
|-------------------------|-------------------------|
|-------------------------|-------------------------|
|-------------------------|-------------------------|
|-2-s7--7--7--7--7--7--7--|-8-p7--7--7--9-p7--7--7--|


|-------------------------|-------------------------|
|-------------------------|-------------------------|
|-------------------------|-------------------------|
|-------------------------|-------------------------|
|-------------------------|-------------------------|
|-11p7--7--7--7--7--7--7--|-8-p7--7--7--7-s6--6--6--|


|-------------------------|-------------------------|
|-------------------------|-------------------------|
|-------------------------|-------------------------|
|-------------------------|-------------------7--8--|
|-2-s7--7--7--7--7--7--7--|-9-p7--6--7--9--10-------|
|-0-----------------------|-------------------------|


|-------------------------|----------0-----------0--|
|-------------------------|----0-----------0--------|
|-------------------------|-------0-----------0-----|
|-9s14-14-14-14-14-14-14--|-13----------12----------|
|-------------------------|-------------------------|
|-------------------------|-------------------------|


|----------0-----------0--|----------0-----------0--|
|----0-----------0--------|----0-----------0--------|
|-------0-----------0-----|-------0-----------0-----|
|-11----------10----------|-9-----------8-----------|
|-------------------------|-------------------------|
|-------------------------|-------------------------|


|----------0-----------0--|-------------9--9--9--9--|
|----0-----------0--------|-------7-----------------|
|-------0-----------0-----|----9-----9--------------|
|-8-----------9-----------|-8-----------------------|
|-------------------------|-------------------------|
|-------------------------|-------------------------|


|-12p11-11-11-11p9--9--9--|-9-p7--7--7--7--7--7--7--|
|-------------------------|-------------------------|
|-------------------------|-------------------------|
|-------------------------|-------------------------|
|-9-----------9-----------|-------------------------|
|-------------------------|-7-----------------------|


|-12p11-11-11-11p9--9--9--|-9-p7--7--7--7--7--7--7--|
|-------------------------|-------------------------|
|-------------------------|-------------------------|
|-------------------------|-------------------------|
|-9-----------9-----------|-------------------------|
|-------------------------|-7-----------------------|


|-7-s19-19-19-19-19-19-19-|-19s7--7--7--7--7--7--7--|
|-------------------------|-------------------------|
|-------------------------|-------------------------|
|-------------------------|-------------------------|
|-------------------------|-------------------------|
|-------------------------|-------------------------|


|-7-----------------------|----------0-----------7--|
|----0--0--0--0--0--0--0--|-0--2--4-----7--8--10----|
|-------------------------|-------------------------|
|-------------------------|-------------------------|
|-------------------------|-------------------------|
|-------------------------|-------------------------|


|-10p8--8--8--8-p7--7--7--|-7-p5--5--5--5-p3--3--3--|
|-------------------------|-------------------------|
|-------------------------|-------------------------|
|-7-----------5-----------|-4-----------2-----------|
|-------------------------|-------------------------|
|-------------------------|-------------------------|


|-3-p2--2--2--2-p0--0--0--|-------------------------|
|-------------------------|-5-p4--4--4--1-p0--0--0--|
|-------------------------|-------------------------|
|-0-----------------------|-------------------------|
|-------------3-----------|-2-----------0-----------|
|-------------------------|-------------------------|


|-------------------------|-------------------------|
|-1-p0--0--0--1-p0--0--0--|-1-p0--0--0--1-p0--0--0--|
|-------------------------|-------------------------|
|-------------------------|-------------------------|
|-------------------------|-------------------------|
|-3-----------2-----------|-0-----------2-----------|


|-------------------------|-------------------------|
|-1-p0--0--0--1-p0--0--0--|-2-----------------------|
|-------------------------|-0-----------------------|
|-------------------------|-2-----------------------|
|-------------0-----------|-1-----------------------|
|-3-----------------------|-------------------------|


|----------------------0--|-3-----------0--------9--|
|-------------------2-----|----------2--------11----|
|-------------0-h3--------|----0-h3--------12-------|
|----------2--------------|-------------------------|
|-R--1-h4-----------------|-------------------------|
|-------------------------|-------------------------|


|-12----------15----------|-18----------------------|
|----------14----------14-|-------------------------|
|-------15----------15----|-------------------------|
|----14----------14-------|-------------------------|
|-------------------------|-------------------------|
|-------------------------|-------------------------|


|-------------------------|-------------------------|
|-R--R--12-12-13p10-10-10-|-12p8--8--8--10p7--7--7--|
|-------------------------|-------------------------|
|-------------------------|-------------------------|
|-------------------------|-------------------------|
|-------------------------|-------------------------|


|-------------------------|-------------------------|
|-------------------------|-------------------------|
|-9-----------------------|-------------------------|
|-------9--9--10p7--7--7--|-9-p5--5--5--7-p4--4--4--|
|-------------------------|-------------------------|
|-------------------------|-------------------------|


|-------------------------|-------------------------|
|-------------------------|-------------------------|
|-------------------------|-------------------------|
|-------------------------|-------------------------|
|-7-----------------------|-------------------------|
|-------7--7--8-p5--5--5--|-7-p3--3--3--5-p2--2--2--|


|-------------------0-----|-7--------0--------12-15-|
|----------------0-----8--|-------0--------12-------|
|-------------0-----------|----0--------12----------|
|----------2--------------|-------------------------|
|-------2-----------------|-------------------------|
|-0-h3--------------------|-------------------------|


|-19---------<7>----------|<5>----------------------||
|------------<7>----------|<5>----------------------||
|------------<7>----------|<5>----------------------||
|-------------------------|-------------------------||
|-------------------------|-------------------------||
|------------<7>----------|<5>----------------------||


*********************************************************************
*********************************************************************

Добавлено: 31.03.2012
Другие материалы по этой песне:

Страница создана 26.02.2012
http://primanota.ru/julio-sagreras/el-colibri-chords.htm
Привет, Гость.
Предлагаем пройти революционный курс по гитаре.
Подарок от PrimaNota.Ru, забирай!