PrimaNota.ru - самый крупный в мире бесплатный архив песенных текстов, аккордов, табулатур и нот


Julio Iglesias - Se Mi Lasci Non Valesi Me Dejas No Vale - бас-таба, видео

Регистрация Запомнить меня
Войти через:  Facebook Google Twitter Vk Yandex Mail.ru

Julio Iglesias - Se Mi Lasci Non Valesi Me Dejas No Vale - бас-таба, видео

Печатать
Просмотров: 46
-------------------------------------------------------------------------------
                             SE MI LASCI NON VALE / SI ME DEJAS NO VALE - JULIO IGLESIAS
-------------------------------------------------------------------------------
Artista: Julio Iglesias
Canzone: Se mi lasci non vale / Si me dejas no vale
Accordatura Standard E(mi) A(la) D(re) G(sol)
Tab: Danko Cardi
 
 Per qualsiasi considerazione mi trovate su Fb (Danko Cardi)
        
INTRO 
|--------------|--------------|
|--------------|--------------|
|----5-5-------|--3-3-13-333--| X 2
|--3----3-333--|--------------|

VERSI
|-------------------|---------------------|-------------------3----|
|-------------------|----------------1-3--|--3-133--1-3-3-133------|
|--r-r-r-r-r-r-r-r--|--3-3-133---1-3------|--------3------------6--|
|-------------------|----------3----------|------------------------|
                                                                            *
|-----------------|---------------------------|-----------------------------|
|-----------------|---5-5-355-0-3-5-5-35------|-----------------------------|
|-----------------|--5------------------5--5--|--3-3-133--1-5-5-35-0-1-0----|
|--6-6-466-1-4-6--|----------------------6----|----------3---------------3--|

|---------------------------|---------------------|-------------------3----|
|---------------------------|----------------1-3--|--3-133--1-3-3-133------|
|----5-5--------5-5---------|--3-3-133---1-3------|--------3------------6--|
|--3----33-653-3----33-653--|----------3----------|------------------------|

|-----------------|---------------------------|-----------------------------|
|-----------------|---5-5-355-0-3-5-5-35------|-----------------------------|
|-----------------|--5------------------5--5--|--3-3-133--1-5-5-35-0-1-0----|
|--6-6-466-1-4-6--|----------------------6----|----------3---------------3--|

RITORNELLO
|---------0---|---------------------|------------|-------------|----------------|
|-------11-1--|-1-1---------------5-|------------|-------------|----------------|
|--3-3-3------|----3-1----------5---|------------|--3-3-133-5--|--6-6-46--------| X2
|-------------|--------3-3-1-33-----|--3-3-3333--|-------------|---------6-4-3--|

RIPETERE INTRO

RIPETERE VERSI FINO AL *

RIPETERE RITORNELLO FINO ALLA FINE



| /  slide up
| \  slide down
| h  hammer-on
| p  pull-off
| ~  vibrato
| +  harmonic
| x  Mute note
===============================================================================
Добавлено: 23.04.2016
Вам также может быть интересно:
Другие материалы по этой песне:
  • Аккорды и текст

Страница создана 23.04.2016
http://primanota.ru/julio-iglesias/se-mi-lasci-non-valesi-me-dejas-no-vale-chords.htm
Привет, Гость.
Предлагаем пройти революционный курс по гитаре.
Подарок от PrimaNota.Ru, забирай!