PrimaNota.ru - самый крупный в мире бесплатный архив песенных текстов, аккордов, табулатур и нот


Julio Gawleta - A Sky Full Of Stars - таба, видео

Регистрация Запомнить меня
Войти через:  Facebook Google Twitter Vk Yandex Mail.ru

Julio Gawleta - A Sky Full Of Stars - таба, видео

Печатать
Просмотров: 155
Уроки эстрадного вокала в Санкт-Петербурге
-------------------------------------------------------------------------------
                    A Sky Full Of Stars - Julio Gawleta
-------------------------------------------------------------------------------
Tabbed by: FourthPlane
E-mail: fourthplanemusic@gmail.com

Tuning: Standard
Capo: 6th Fret

Intro:

e|---0--0--0---0--------0--0--0--0---0--0--0--0--0---0--0--0--0--0--0---0--------|
B|---1--1--1---1--------1--1--1--1---1--1--1--1--1---1--0--0--0--0--0---0--------|
G|---0--0--0---0--------0--0--0--0---0--0--0--0--0---0--0--0--0--0--0---0--------|
D|---2--2--2---2--0--0--3--3--3--3---3--2--2--2--2---2--0--0--0--0--0---0--------|
A|---0--0--0---0--0--0--3--3--3--3---3--3--3--3--3---3--2--2--2--2--2---2--------|
E|----------------3--0--1--1--1--1---1------------------0--0--0--0--0---0--------|

Verse:

e|---0--0--0---0--------0--0--0--0---0--0--0--0--0---0--0--0--0--0--0---0--------|
B|---1--1--1---1--------1--1--1--1---1--1--1--1--1---1--0--0--0--0--0---0--------|
G|---0--0--0---0--------0--0--0--0---0--0--0--0--0---0--0--0--0--0--0---0--------|
D|---2--2--2---2--0--0--3--3--3--3---3--2--2--2--2---2--0--0--0--0--0---0--------|
A|---0--0--0---0--0--0--3--3--3--3---3--3--3--3--3---3--2--2--2--2--2---2--------|
E|----------------3--0--1--1--1--1---1------------------0--0--0--0--0---0--------|

Chorus: 

e|---0--0--0---0--------0--0--0--0---0--0--0--0--0---0--0--0--0--0--0---0--------|
B|---1--1--1---1--------1--1--1--1---1--1--1--1--1---1--0--0--0--0--0---0--------|
G|---0--0--0---0--------0--0--0--0---0--0--0--0--0---0--0--0--0--0--0---0--------|
D|---2--2--2---2--0--0--3--3--3--3---3--2--2--2--2---2--0--0--0--0--0---0--------|
A|---0--0--0---0--0--0--3--3--3--3---3--3--3--3--3---3--2--2--2--2--2---2--------|
E|----------------3--0--1--1--1--1---1------------------0--0--0--0--0---0--------|

Post Chorus:

e|---0------------0-----0-----0-----|
B|---1------------1-----1-----0-----|
G|---0------------0-----0-----0-----|
D|---2----0--0----3-----2-----0-----|
A|---0----0--0----3-----3-----2-----|
E|--------3--0----1-----------0-----|

Bridge / Outro

e|---0----0----0----0----|
B|---1----0----1----1----|
G|---0----0----0----0----|
D|---3----0----2----2----|
A|---3----0----0----0----|
E|---1----3--------------|


************************************

| /   slide up
| \   slide down
| h   hammer-on
| p   pull-off
| ~   vibrato
| +   harmonic
| x   Mute note
| b   Bend
| pb  Pre-bend
| br  Bend release
| pbr Pre-bend release
| brb Bend release bend

************************************
Добавлено: 09.11.2015
Другие материалы по этой песне:
  • Аккорды и текст

Страница создана 09.11.2015
http://primanota.ru/julio-gawleta/sky-full-of-stars-chords.htm
Привет, Гость.
Предлагаем пройти революционный курс по гитаре.
Подарок от PrimaNota.Ru, забирай!