PrimaNota.ru - самый крупный в мире бесплатный архив песенных текстов, аккордов, табулатур и нот


Julio Gawleta - Sem Medo De Amar - аккорды и текст, видео

Регистрация Запомнить меня
Войти через:  Facebook Google Twitter Vk Yandex Mail.ru

Julio Gawleta - Sem Medo De Amar - аккорды и текст, видео

Печатать
Просмотров: 42
Sem Medo De Amar
Julio Gawleta
-------------------------------------------------------------------------------
                    Sem Medo De Amar - Julio Gawleta
-------------------------------------------------------------------------------
Tabbed by: FourthPlane
E-mail: fourthplanemusic@gmail.com

Afinação: Normal

Video: http://www.youtube.com/watch?v=TlffT3Rxdlg

Intro:

E             B
   Ontem te falei 

              A9
Que você é tudo que eu mais quero

E o meu coração só tem lugar 

       E       B
Pra você, só você

                 F#m
Essa mistura louca de desejo

              A9            B
Me perco toda vez que eu te vejo

Pré-refrão:

    C#m
Eu sei
                  Abm
Sem você não tem rima a minha canção

C#m                       Abm
    Você inspira os meus sonhos

                Gm
Eu venço a solidão

 F#m
Toda vez que eu ouço a sua voz

                      Abm
Sinto o gosto do seu beijo

  A9           
Quero ser seu mundo

         F#m
Vem com tudo

       E          B
Vem matar o meu desejo

Refrão:

  E         B      F#m
Quero mergulhar no azul desse olhar

   A9
Poder navegar

  E        B      F#m
Quero te dizer sem medo de amar

    A9
Eu quero você

  E         B      F#m
Quero mergulhar no azul desse olhar

   A9
Poder navegar

  E        B      F#m
Quero te dizer sem medo de amar

    A9             E  B  F#m
Eu quero você pra mim

     A9            E  B  F#m  A9
Eu quero você pra mim

Solo:

E|--5-4h5p4----------5-4h5p4-------7-------| 2x
B|----------5-7-5-4----------5-7-5---------|
G|-----------------------------------------|
D|-----------------------------------------|
A|-----------------------------------------|
E|-----------------------------------------|

E|--5-4h5p4-----------------|
B|----------5-7-5--4--5/7---|
G|--------------------------|
D|--------------------------|
A|--------------------------|
E|--------------------------|

E             B
   Ontem te falei 

            A9
Que você é tudo que eu mais quero

             A9
E o meu coração só tem lugar 

       E       B
Pra você, só você

              F#m
Essa mistura louca de desejo

                   A9        B
Me perco toda vez que eu te vejo


Pré-refrão:

    C#m
Eu sei
                  Abm
Sem você não tem rima a minha canção

C#m                       Abm
    Você inspira os meus sonhos

                Gm
Eu venço a solidão

 F#m
Toda vez que eu ouço a sua voz

                      Abm
Sinto o gosto do seu beijo

  A9          
Quero ser seu mundo

         F#m
Vem com tudo

       E          B
Vem matar o meu desejo

Refrão:

  E         B      F#m
Quero mergulhar no azul desse olhar

   A9
Poder navegar

  E        B      F#m
Quero te dizer sem medo de amar

    A9
Eu quero você

  E         B      F#m
Quero mergulhar no azul desse olhar

   A9
Poder navegar

  E        B      F#m         A9
Quero te dizer sem medo de amar

    E         B       F#m
Eu quero mergulhar no azul desse olhar

   A9
Poder navegar

  E        B      F#m
Quero te dizer sem medo de amar

    A9
Eu quero você

  E         B      F#m
Quero mergulhar no azul desse olhar

   A9
Poder navegar

  E        B      F#m
Quero te dizer sem medo de amar

    A9             E  B  F#m
Eu quero você pra mim

     A9            E  B  F#m  A9 
Eu quero você pra mim

E|--5-4h5p4----------5-4h5p4-------7-------| 2x
B|----------5-7-5-4----------5-7-5---------|
G|-----------------------------------------|
D|-----------------------------------------|
A|-----------------------------------------|
E|-----------------------------------------|

E|--5-4h5p4-----------------|
B|----------5-7-5--4--5/7---|
G|--------------------------|
D|--------------------------|
A|--------------------------|
E|--------------------------|
Добавлено: 09.11.2015
Другие материалы по этой песне:
  • Аккорды и текст

Страница создана 09.11.2015
http://primanota.ru/julio-gawleta/sem-medo-de-amar-chords.htm
Привет, Гость.
Предлагаем пройти революционный курс по гитаре.
Подарок от PrimaNota.Ru, забирай!