PrimaNota.ru - самый крупный в мире бесплатный архив песенных текстов, аккордов, табулатур и нот


Julio Gawleta - Heroes - таба, видео

Регистрация Запомнить меня
Войти через:  Facebook Google Twitter Vk Yandex Mail.ru

Julio Gawleta - Heroes - таба, видео

Печатать
Просмотров: 64
-------------------------------------------------------------------------------
                           Heroes - Julio Gawleta
-------------------------------------------------------------------------------
Tabbed by: FourthPlane
E-mail: fourthplanemusic@gmail.com

Video: http://www.youtube.com/watch?v=raOAL0QIHg8

Tuning: Standard
Capo: 4th Fret

Intro

e|---3-------0-------0-------0------|
B|---3-------0-------0-------1------|
G|---0-------4-------0-------0------|
D|---0-------4-------2-------2------|
A|---2-------2-------2-------3------|
E|---3---------------0--------------|

Intro Solo (No Capo)

e|----------------------------------------|
B|--4------6/7----7--7/9--7--4-------7/9--|
G|------4------------------------4--------|
D|----------------------------------------|
A|----------------------------------------|
E|----------------------------------------|

Verse: (2x)

e|---3-------0-------0-------0------|
B|---3-------0-------0-------1------|
G|---0-------4-------0-------0------|
D|---0-------4-------2-------2------|
A|---2-------2-------2-------3------|
E|---3---------------0--------------|

Post Chorus: (2x)

e|----------------------------------|
B|----------------------------------|
G|-----------4-------9--------------|
D|---5-------4-------9-------10-----|
A|---5-------2-------7-------10-----|
E|---3-----------------------8------|

Chorus: (4x)

e|---3-------0-------0-------0------|
B|---3-------0-------0-------1------|
G|---0-------4-------0-------0------|
D|---0-------4-------2-------2------|
A|---2-------2-------2-------3------|
E|---3---------------0--------------|

Solo: (No Capo)

e|----------------------------------------------------------14----|
B|---12----12--12-11--11--7--4----12----12--12--14---14--12-------|
G|------11---------------------------11---------------------------|
D|----------------------------------------------------------------|
A|----------------------------------------------------------------|
E|----------------------------------------------------------------|

Bridge

e|---3-------0-------0-------0------0------x------3----|
B|---3-------0-------0-------1------1------3------3----|
G|---0-------4-------0-------2------0------x------0----|
D|---0-------4-------2-------2------2------4------0----|
A|---2-------2-------2-------0------3------2------2----|
E|---3---------------0----------------------------3----|


************************************

| /   slide up
| \   slide down
| h   hammer-on
| p   pull-off
| ~   vibrato
| +   harmonic
| x   Mute note
| b   Bend
| pb  Pre-bend
| br  Bend release
| pbr Pre-bend release
| brb Bend release bend

************************************
Добавлено: 09.11.2015
Другие материалы по этой песне:
  • Аккорды и текст

Страница создана 09.11.2015
http://primanota.ru/julio-gawleta/heroes-chords.htm
Привет, Гость.
Предлагаем пройти революционный курс по гитаре.
Подарок от PrimaNota.Ru, забирай!