PrimaNota.ru - самый крупный в мире бесплатный архив песенных текстов, аккордов, табулатур и нот


Julio Gawleta - Blame - таба, видео

Регистрация Запомнить меня
Войти через:  Facebook Google Twitter Vk Yandex Mail.ru

Julio Gawleta - Blame - таба, видео

Печатать
Просмотров: 76
Youtube Video: https://www.youtube.com/watch?v=v0tXwzwJJRk

Capo 3° Fret

Intro

    F     Am        G       Dm
E|--------------------------------------|
B|--------------1-----------------------|
G|------2-----2-------0-----2----0h2p0--|
D|----3-------------0-----0---0---------|
A|---------0----------------------------|
E|--1-------------3---------------------|

Verse

    F     Am        G       Dm
E|--------------------------------------|
B|--------------1-----------------------|
G|------2-----2-------0-----2----0h2p0--|
D|----3-------------0-----0---0---------|
A|---------0----------------------------|
E|--1-------------3---------------------|

Pre Chorus

    F     Am        G       G
E|--------------------------------------|
B|--------------1-----------------------|
G|------2-----2-------0-------0---------|
D|----3-------------0-------0-----------|
A|---------0----------------------------|
E|--1-------------3-------3-------------|

Chorus


     F      Am        G        G
E|---1-------0--------3--------3--------|
B|---1-------1--------3--------3--------|
G|---2-------2--------0--------0--------|
D|---3-------2--------0--------0--------|
A|---3-------0--------2--------2--------|
E|---1----------------3--------3--------|

Instrumental (Acoustic Guitar)

     F      Am        G        G
E|---1-------0--------3--------3--------|
B|---1-------1--------3--------3--------|
G|---2-------2--------0--------0--------|
D|---3-------2--------0--------0--------|
A|---3-------0--------2--------2--------|
E|---1----------------3--------3--------|

Solo Instrumental (Eletric Guitar) (x2)

E|---------------------------------------------------------|
B|---------------------------------------------------------|
G|----12----12----12----12-10------12----12----12----12-10-|
D|-10----10----10----10---------10----10----10----10-------|
A|---------------------------------------------------------|
E|---------------------------------------------------------|

                           
E|---------------------------------------------------------|
B|---------------------------------------------------------|
G|---10---10---10---10-7-------15----15----15----15-10/12--|
D|-8----8----8----8---------13----13----13----13-----------|
A|---------------------------------------------------------|
E|---------------------------------------------------------|

Bridge

     F       Am       G
E|---1-------0--------3-----|
B|---1-------1--------3-----|
G|---2-------2--------0-----|
D|---3-------2--------0-----|
A|---3-------0--------2-----|
E|---1----------------3-----|

Outro 

     F      Am        G        G
E|---1-------0--------3--------3--------|
B|---1-------1--------3--------3--------|
G|---2-------2--------0--------0--------|
D|---3-------2--------0--------0--------|
A|---3-------0--------2--------2--------|
E|---1----------------3--------3--------|
Добавлено: 09.11.2015
Вам также может быть интересно:
Другие материалы по этой песне:
  • Аккорды и текст

Страница создана 09.11.2015
http://primanota.ru/julio-gawleta/blame-chords.htm
Привет, Гость.
Предлагаем пройти революционный курс по гитаре.
Подарок от PrimaNota.Ru, забирай!