PrimaNota.ru - самый крупный в мире бесплатный архив песенных текстов, аккордов, табулатур и нот


Juliette & The Licks - Smash & Grab - текст песни, таба, видео

Регистрация Запомнить меня
Войти через:  Facebook Google Twitter Vk Yandex Mail.ru

Juliette & The Licks - Smash & Grab - текст песни, таба, видео

Печатать
Просмотров: 127
This is my first tab, email if you have any corrections and stuff!

^ - Bend (up and down quick like in the song)
/ - Slide up
v - vibrato
x - Mute

Intro :-

e|----------------------------------------------------------------|
B|--------10-10^----------10-10^----------10-10^--11-11-10-10-----|
G|------8-10-10^--------8-10-10^--------8-10-10^--10-10-10-10-----|    2x
D|10-10-----------10-10-----------10-10---------------------------|
A|10-10-----------10-10-----------10-10---------------------------|
E|-8--8-----------8---------------8-------------------------------|


Verse :-

             Smash and Grab I stole |your heart.....     (!8 beats between!)
e|----------------------------------------------------------------|
B|----------------------------------------------------------------|
G|--------------------------------10---------------11-11-10-10----|    4x
D|-10-----------------------------10---------------10-10-10-10----|
A|-10-----------------------------8-------------------------------|
E|-8-------(8 beats)-------|8-11-8-11-----------------------------|

(on the 3rd and 4th bars palm mute and hit the 8 beats on the 8th fret on E)

Pre Chorus :-
        
       Yeaaaah                    Yeaaaaah
e|----------------------------------------------------------------|
B|----------------------------------------------------------------|
G|------------------------5---------------------------------------|
D|-5-5--------------------5---5-5-------8-8-9-9-------------------|
A|-5-5--------------------3---5-5-------8-8-9-9-------------------| 
E|-3-3-6-3-6-3--3-6-3-6-3-----3-3-6-3-6-6-6-7-7-------------------|

(go straight into chorus from this)

Chorus :-

     Pressures runnin' high
e|----------------------------------------------------------------|
B|--------10-10^----------10-10^----------10-10^--11-11-10-10-----|
G|------8-10-10^--------8-10-10^--------8-10-10^--10-10-10-10-----|    2x
D|10-10-----------10-10-----------10-10---------------------------|
A|10-10-----------10-10-----------10-10---------------------------|
E|-8--8-----------8---------------8-------------------------------|


Pre Chorus 2  :-

    Come on with love, and love again....
e|----------------------------------------------------------------|
B|----------------------------------------------------------------|
G|--------------------------------10---------------11-11-10-10----|    4x
D|-10-----------------------------10----(8 beats)----10-10-10-10--|
A|-10-----------------------------8-------------------------------|
E|-8-------(8 beats)-------|8-11-8-11-----------------------------|


e|----------------------------------------------------------------|
B|----------------------------------------------------------------|
G|------------------------5---------------------------------------|
D|-5-5--------------------5---5-5-------8-8-9-9-------------------|
A|-5-5--------------------3---5-5-------8-8-9-9-------------------| 
E|-3-3-6-3-6-3--3-6-3-6-3-----3-3-6-3-6-6-6-7-7-------------------|

(go straight into chorus from this)

Chorus 2  :-

     Pressures runnin' high
e|----------------------------------------------------------------|
B|--------10-10^----------10-10^----------10-10^--11-11-10-10-----|
G|------8-10-10^--------8-10-10^--------8-10-10^--10-10-10-10-----|    2x
D|10-10-----------10-10-----------10-10---------------------------|
A|10-10-----------10-10-----------10-10---------------------------|
E|-8--8-----------8---------------8-------------------------------|



Solo :-

e|-14-16-17-------------------------------------------------------|
B|---------17-15-12----/8-----------------------------------------|
G|---------------------/8-----------------------------------------|
D|-----------------------10v-/6-------6--6-8-6-6-8^--/10v-/13v----|
A|---------------------------/6-6-7-8---8-----8-------------------|
E|-----------------------------8----------------------------------|

e|-/13-13-13-13--13^p11-13^-11-----------------------------8-11---|
B|-------------------------------------8-10-11------8-10-11-------|
G|------------------------------8-9-10--------9-9-11--------------|  
D|----------------------------10----------------------------------|
A|----------------------------------------------------------------|
E|----------------------------------------------------------------|
 
                       (palm mute|------------|lift off--------------|)

e|-/15-12-12--12--------------------------------------------------|
B|----------15-15-12----------------------------------------------|
G|------------------14--------------------------------------------|  
D|----------------------14-12-------------------------------12-14-|
A|---------------------------14-12--------12-------12--12-14------|
E|--------------------------------15-12-15----12-15--15-----------|

e|----------------------------------------------------------------|
B|----------------------------------------------------------------|
G|-12--14v--------------------------------------------------------|  
D|---14-----------------------------------------------------------|
A|----------------------------------------------------------------|
E|----------------------------------------------------------------|

Break :-

     (2.04)       (2.05)
e|----------------------------------------------------------------|
B|----------------------------------------------11-11-10-10-------|
G|-----------------------------------8xxxx10-10-10-10-10-10-------|  
D|-10\5---8-10-----------------------8xxxx10-10-------------------|
A|-10\5---8-10-----------------------6xxxx8--8--------------------|
E|-8\\3---6-8----------8-11-8-11-8-11-----------------------------|


Pre Chorus 3 :-

e|----------------------------------------------------------------|
B|----------------------------------------------------------------|
G|------------------------5---------------------------------------|
D|-5-5--------------------5---5-5-------8-8-9-9-------------------|
A|-5-5--------------------3---5-5-------8-8-9-9-------------------| 
E|-3-3-6-3-6-3--3-6-3-6-3-----3-3-6-3-6-6-6-7-7-------------------|

(go straight into chorus from this)

Chorus/Outro :-

     Pressures runnin' high
e|----------------------------------------------------------------|
B|--------10-10^----------10-10^----------10-10^--11-11-10-10-----|
G|------8-10-10^--------8-10-10^--------8-10-10^--10-10-10-10-----|    3x
D|10-10-----------10-10-----------10-10---------------------------|
A|10-10-----------10-10-----------10-10---------------------------| (go straight into end chords) 
E|-8--8-----------8---------------8-------------------------------|

e|----------------------------------------------------------------|
B|-------------------------------------10-10^---------------------|
G|-----------------------------------8-10-10^-8-------------------|  
D|-2-2-3-3-4-4-5-5--3-3-4-4-8-8-10-10-----------10----------------|
A|-2-2-3-3-4-4-5-5--3-3-4-4-8-8-10-10-----------10----------------|
E|-0-0-1-1-2-2-3-3--1-1-2-2-6-6-8--8------------8-----------------|
Добавлено: 09.06.2012
Другие материалы по этой песне:

Страница создана 06.05.2012
http://primanota.ru/juliette-and-the-licks/smash-and-grab-chords.htm
Привет, Гость.
Предлагаем пройти революционный курс по гитаре.
Подарок от PrimaNota.Ru, забирай!