PrimaNota.ru - самый крупный в мире бесплатный архив песенных текстов, аккордов, табулатур и нот


Juliette & The Licks - Got Love To Kill - текст песни, бас-таба, видео

Регистрация Запомнить меня
Войти через:  Facebook Google Twitter Vk Yandex Mail.ru

Juliette & The Licks - Got Love To Kill - текст песни, бас-таба, видео

Печатать
Просмотров: 171
Уроки эстрадного вокала в Санкт-Петербурге
GOT LOVE TO KILL
Juliette And The Licks

Taken from the Fiddler EP ...Like A Bolt Of Lightning (2004)

Transcribed by: Damian Pamminger (TwitcheD_85@hotmail.com)

Standard tuning: E A D G

|---------------------------------------------------------------------|---------------|
| ---------------------------------------------------------------------|---REPEAT-----|
|-5-5-5-5-5-5-5-5\------------------3-3-3-3-3-3-3-3------------------|-seven-more-----|
| ------------------1-1-1-1-1-1-1-1------------------3-3-3-3-3-3-3-3- | ---times------|

| --------------------------------------------------------------------------------|
|----------------------2-2-3-3-2-2---------------------2-2-3-3-2-2----------------|
|-1-1-1-1-1-1-1-1-1-1-------------3-3-3-3-3-3-3-3-3-3-------------1-1-1-1-1-1-----|
| --------------------------------------------------------------------------------|

|----------------------------------------------------------|--------------------|
|---------2-2-3-3-2-2----------------------2-2-3-3-2-2----|---------------------|
|-1-1-1-1-------------3-3-3-3-3-3-3-3-3-3--------------3/-|-5-5-5-5-5-5-5-5\----|
|----------------------------------------------------------|--------------------|

|--------------------------------------------------- |----------- |--------------|
|--------------------------------------------------- |--REPEAT--- |--------------|
|------------------3-3-3-3-3-3-3-3----------------- |-three-more-|-1-1-1-1-1-1---|
|-1-1-1-1-1-1-1-1------------------3-3-3-3-3-3-3-3-|---times----|----------------|

|-----------------------------------------------------------------------------|
|---------2-2-3-3-2-2----------------------2-2-3-3-2-2------------------------|
|-1-1-1-1-------------3-3-3-3-3-3-3-3-3-3--------------1-1-1-1-1-1-1-1-1-1----|
|-----------------------------------------------------------------------------|

|---------------------------------------------- | -----------------------------------|
|-2-2-3-3-2-2----------------------------------| ------------------------------------|
|-------------3-3-3-3-3-3-3-3-3-3-3-3-3-3-3-3-| -------------------------------------|
|---------------------------------------------- |-1-1-1-1-1-1-1-1-1-1-1-1-1-1-1-1----|

|-----------------------------------------------------------------------------------|
|-----------------------------------------------------------------------------------|
|-----------------------------------------------------------------------------------|
|-3-3-3-3-3-3-3-3-1-1-1-1-1-1-1-1-3-3-3-3-3-3-3-3-3-3-3-3-3-3-3-3/-6-6-6-6-6-6------|

|------------------------7-7-----7-7-----7-7-----7-7-------------------------------|
|----------------------------------------------------------------------------------|
|--------------------5-5-----5-5-----5-5-----5-5-----5-5-5-5-5-5-5-5/-8-8-8-8-8----|
|-6-6-6-6-6-6-6-6-6----------------------------------------------------------------|

|----------------------------------------------------------------------------------|
|----------------------------------------------------------------------------------|
|-8-8-8\-3-3-3-3-3-3-3-3/-10-10-10-10-10-10-10-10-\-5-5-5-5-5-5-5-5/-8-8-8-8-8-----|
|----------------------------------------------------------------------------------|

|------------------------------------------------------------------------------|
|------------------------------------------------------------------------------|
|-8-8-8\-3-3-3-3-3-3-3-3------------------5-5-5-5-5-5-5-5/-8-8-8-8-8-8-8-8\----|
| ------------------------3-3-3-3-3-3-3-3--------------------------------------|

| ----------------------------------------------------------------------------------|
| ----------------------------------------------------------------------------------|
|-3-3-3-3-3-3-3-3/-10-10-10-10-10-10-10-10-\-5-5-5-5-5-5-5-5/-8-8-8-8-8-8-8-8/------|
|-----------------------------------------------------------------------------------|

|---------------------------------------------------------------------------------|
|---------------------------------------------------------------------------------|
|-15-15-15-15-15-15-15-15\-10-10-10-10-10-10-10-10\-5-5-5-5-5-5-5-5/-8-8-8-8------|
|---------------------------------------------------------------------------------|

| ---------------------------------------------------------------------------------|
| ---------------------------------------------------------------------------------|
|-8-8-8-8\-3-3-3-3-3-3-3-3/-10-10-10-10-10-10-10-10\-5-5-5-5-5-5-5-5/-8-8-8-8------|
| ---------------------------------------------------------------------------------|

| -----------------------------------------------------------|--------------------|
|----------------------------------------------------------- |--------------------|
|-8-8-8-8/-15-15-15-15-15-15-15-15-\-10-10-10-----10-10-\-|-5-5-5-5-5-5-5-5\------|
| -----------------------------------------------------------|--------------------|

|----------------------------------------------------|--------|-------------------|
|----------------------------------------------------|-REPEAT-|-------------------|
|------------------3-3-3-3-3-3-3-3------------------|-------- |-1-1-1-1-1-1-1-1---|
|-1-1-1-1-1-1-1-1------------------3-3-3-3-3-3-3-3-|---------| -------------------|

|---------------------------------------------------------------------------------|
|-----2-2-3-3-2-2----------------------2-2-3-3-2-2----------------------2-2-3-3---|
|-1-1-------------3-3-3-3-3-3-3-3-3-3--------------1-1-1-1-1-1-1-1-1-1------------|
|---------------------------------------------------------------------------------|

|-------------------------------------- |--------------------------------------------|
|-2-2---------------------------------- |--------------------------------------------|
|-----3-3-3-3-3-3-3-3-3-3-3-3-3-3-3-3-|----------------------------------------------|
|-------------------------------------- |-1-1-1-1-1-1-1-1-1-1-1-1-1-1-1-1-3-3-3-3----|

|------------------------------------------------------------------------------------|
|------------------------------------------------------------------------------------|
|------------------------------------------------------------------------------------|
|-3-3-3-3-3-3-3-3-3-3-3-1-1-1-1-1-1-1-1-1-1-1-1-1-1-1-1-3-3-3-3-3-3-3-3-3-3-3-3------|

|------------------------------------------------------------------------------------|
|------------------------------------------------------------------------------------|
|------------------------------------------------------------------------------------|
|-3-3-3-3-1-1-1-1-1-1-1-1-1-1-1-1-1-1-1-1-3-3-3-3-3-3-3-3-3-3-3-3-3-3-3-3-1-1-1------|

| ----------------------------------------------------------------------------------|
| ----------------------------------------------------------------------------------|
| ----------------------------------------------------------------------------------|
|-1-1-1-1-1-1-1-1-1-1-1-1-1-3-3-3-3-3-3-3-3-3-3-3-3-3-3-3-3/-6-6-6-6-6-6-6-6-6------|

|--------------------7-7-----7-7-----7-7-----7-7-|-----7-7------7-7-----7-7----|
|------------------------------------------------ |----------------------------|
|----------------5-5-----5-5-----5-5-----5-5-----|-5-5-----5-5------5-5--------|
|-6-6-6-6-6-6-6----------------------------------|-----------------------------|

|-----7----------------------------|
|----------------------------------|
|-5-------5------------------------|
|----------------------------------|
Добавлено: 23.03.2012
Другие материалы по этой песне:
  • Аккорды и текст

Страница создана 23.03.2012
http://primanota.ru/juliette-and-the-licks/got-love-to-kill-chords.htm
Привет, Гость.
Предлагаем пройти революционный курс по гитаре.
Подарок от PrimaNota.Ru, забирай!