PrimaNota.ru - самый крупный в мире бесплатный архив песенных текстов, аккордов, табулатур и нот


Julien-k - Waking Up - текст песни, таба, видео

Регистрация Запомнить меня
Войти через:  Facebook Google Twitter Vk Yandex Mail.ru

Julien-k - Waking Up - текст песни, таба, видео

Печатать
Просмотров: 149
Main riff:

e|------------------------------------------------------------------------------------|
B|------------------------------------------------------------------------------------|
G|------------------------------------------------------------------------------------|
D|------------------------------------------------------------------------------------|
A|--6-6-6-6-6-6-6-6---9-9-9-9-------------11-11-11-11-11-11-11-11---9--9h11-----------|
E|-----------------------------9-9-9-9----------------------------------------9-------|



Bridge x2

e|---------------------------------------------------------------------------|
B|---------------------------------------------------------------------------|
G|-----8---------------------8-----------------------------------------------|
D|---------8---11----------------8---9---------------------------------------|
A|--------------------9-8----------------9-8---------------------------------|
E|---------------------------------------------------------------------------|
Добавлено: 28.02.2012
Вам также может быть интересно:
Другие материалы по этой песне:
  • Аккорды и текст

Страница создана 28.02.2012
http://primanota.ru/julien-k/waking-up-chords.htm
Привет, Гость.
Предлагаем пройти революционный курс по гитаре.
Подарок от PrimaNota.Ru, забирай!