PrimaNota.ru - самый крупный в мире бесплатный архив песенных текстов, аккордов, табулатур и нот


Julien-k - Kick The Bass - текст песни, таба, видео

Регистрация Запомнить меня
Войти через:  Facebook Google Twitter Vk Yandex Mail.ru

Julien-k - Kick The Bass - текст песни, таба, видео

Печатать
Просмотров: 202
Tune Half step down

Intro:

eb|-------14---------14----------------|
Bb|----12---------12--------12---------|
Gb|-11---------11--------11----12------|
Db|------------------------------------|
Ab|------------------------------------|
Eb|------------------------------------|


eb|--------14--12------------------14-------------12--------------------------|
Bb|-----12--------12-15---------12---------12--------12-15--------------------|
Gb|--11-----------------14---11---------11----12-----------14-----------------|
Db|---------------------------------------------------------------------------|
Ab|---------------------------------------------------------------------------|
Eb|---------------------------------------------------------------------------|



Verse:

This is the only guitar lick the verse is mostly bass

eb|---12-----------------|
Bb|------12--15----------|
Gb|-------------14-------|
Db|----------------------|
Ab|----------------------|
Eb|----------------------|



Chorus:

eb|---------------------------------------------------------------------------|
Bb|---------------------------------------------------------------------------|
Gb|--4-4-4--------------------------------------------------------------------|
Db|--4-4-4--------------------------------------------------------------------|
Ab|--2-2-2-0-2-2-2-0--5-5-0-0-2-2-0-0-----7-7-7---7-7-7---7-7-7---7-7-9-9-----|
Eb|-----------------------------------0-0-------7-------7-------7-------------|
   I need to be somebody....


eb|---------------------------------------------------------------------------|
Bb|---------------------------------------------------------------------------|
Gb|---------------------------------------------------------------------------|
Db|---------------------------------------------------------------------------|
Ab|--2-2-2---2-2-2-0--5-5-0-0-2-2-0-0-----7-7-7---7-7-7---7-7-7---7-7-9-9-----|
Eb|--------2--------------------------0-0-------7-------7-------7-------------|
    yeah I'm a fool......

eb|--------------------------------------------------------------------------|
Bb|--------------------------------------------------------------------------|
Gb|--------------------------------------------------------------------------|
Db|-----------------------------------------2-2-2---2-2-2----2-2-2---2-2-4-4-|
Ab|--2-2-2----2-2-2-------------------------------2-------2--------2---------|
Eb|--------2--------2----5-5-5-0--5-5-5-0------------------------------------|
    Do you even know....

eb|---------------------------------------------------------------------------|
Bb|---------------------------------------------------------------------------|
Gb|---------------------------------------------------------------------------|
Db|---------------------------------------------------------------------------|
Ab|--2-2-2---2-2-2-0--5-5-0-0-2-2-0-0-----7-7-7---7-7-7---7-7-7---7-7-9-9-----|
Eb|--------2--------------------------0-0-------7-------7-------7-------------|
    Do you really know...   


Solo:

eb|---------------------------------------------------------------------------|
Bb|---------------------------------------------------------------------------|
Gb|--11-11-11--9-9--12-12-12-12-11-11-9-11-11-11-11-9-9-9---------------------|
Db|---------------------------------------------------------------------------|
Ab|---------------------------------------------------------------------------|
Eb|---------------------------------------------------------------------------|
Добавлено: 11.07.2012
Другие материалы по этой песне:
  • Аккорды и текст

Страница создана 23.06.2012
http://primanota.ru/julien-k/kick-the-bass-chords.htm
Привет, Гость.
Предлагаем пройти революционный курс по гитаре.
Подарок от PrimaNota.Ru, забирай!