PrimaNota.ru - самый крупный в мире бесплатный архив песенных текстов, аккордов, табулатур и нот


Julie Doiron - I broke his heart - таба, видео

Регистрация Запомнить меня
Войти через:  Facebook Google Twitter Vk Yandex Mail.ru

Julie Doiron - I broke his heart - таба, видео

Печатать
Просмотров: 64


Artist: Julie Doiron
Album: Heart and Crime
Song: I Broke His Heart
Tabbed by: Carrie
Tuning: Tune B string up to C
1st part
e|----8-2----5/8-2----5-2----5/8-2-----5-32-----5-32---532---5-32|
C|-----------------------------------0---------0--------0------0------|
G|--0-----0--------0-------0------------------------------------------|
D|--------------------------------------------------------------------|
A|--------------------------------------------------------------------|
E|--------------------------------------------------------------------|

Play like this until you get to the part where she sings all they ever
wanted was me the 1st time. Play this while she says to be happy:
2nd part
e|-----5-2-----8-2------8-2-----5-2-----------------------------------|
C|--------------------------------------------------------------------|
G|--0-------0-------0--------0----------------------------------------|
D|--------------------------------------------------------------------|
A|--------------------------------------------------------------------|
E|--------------------------------------------------------------------|

Then repeat the 1st part over again until singing is finished. Play the
1st part one more time, then play this:
3rd part
e|-----8-2-----5/8-2-----5-2------8-3------5-32--5-32--5-32-5-32--|
C|--------------------------------------0--------0------0-----0-------|
G|--0-------0---------0-------0---------------------------------------|
D|--------------------------------------------------------------------|
A|--------------------------------------------------------------------|
E|--------------------------------------------------------------------|
Music fades out


| /  slide up
|   slide down
| h  hammer-on
| p  pull-off
| ~  vibrato
| +  harmonic
| x  Mute note




Добавлено: 29.12.2013
Вам также может быть интересно:
Другие материалы по этой песне:
  • Аккорды и текст

Страница создана 29.12.2013
http://primanota.ru/julie-doiron/i-broke-his-heart-chords.htm
Привет, Гость.
Предлагаем пройти революционный курс по гитаре.
Подарок от PrimaNota.Ru, забирай!