PrimaNota.ru - самый крупный в мире бесплатный архив песенных текстов, аккордов, табулатур и нот


Juliana Theory - Something Isnt Right Here - текст песни, таба, видео

Регистрация Запомнить меня
Войти через:  Facebook Google Twitter Vk Yandex Mail.ru

Juliana Theory - Something Isnt Right Here - текст песни, таба, видео

Печатать
Просмотров: 118
Put a capo on the 2nd fret. This tab is based on the capo

oooh ooooh oooooooooooooh
--------0-------------0--------------0----------------------------|
-----------3-------------3--------------3-------1----0------------|
-----0-------------0--------------0----------------0--------------|
--2-------------0-------------------------------------------------|
--------------------------------3-----------3---------------------|
------------------------------------------------------------------|

oooh ooooh oooooooooooooh
--------0-------------0--------------0----------------------------|
-----------3-------------3--------------3-------1----0------------|
-----0-------------0--------------0----------------0--------------|
--2-------------0-------------------------------------------------|
--------------------------------3-----------3---------------------|
------------------------------------------------------------------|
Put a capo on the 2nd fret. This tab is based on the capo

oooh ooooh oooooooooooooh
--------0-------------0--------------0----------------------------|
-----------3-------------3--------------3-------1----0------------|
-----0-------------0--------------0----------------0--------------|
--2-------------0-------------------------------------------------|
--------------------------------3-----------3---------------------|
------------------------------------------------------------------|

oooh ooooh oooooooooooooh
--------0-------------0--------------0----------------------------|
-----------3-------------3--------------3-------1----0------------|
-----0-------------0--------------0----------------0--------------|
--2-------------0-------------------------------------------------|
--------------------------------3-----------3---------------------|
------------------------------------------------------------------|
something isnt right here
--------0-------------0--------------0-----------0-------|
-----------3-------------3--------------3-----------3----|
-----0-------------0--------------0-----------0----------|
--2-------------0----------------------------------------|
--------------------------------3-----------3------------|
---------------------------------------------------------|
you've gone and left me on the ground
----------------------------------------------------------|
---------3-----------3-------------3----------------------|
------0-----0-----0----0-------0----0---------------------|
-------------------------------0--------------------------|
--0-------------0-----------------------------------------|
----------------------------------------------------------|


Strumming Not Shown

--3---3---3--------|
--3---3---3--------|
--0---0---2--------|
--2---2---0--------|
--2---3------------|
--0----------------|

--3---3---3--------|
--3---3---3--------|
--0---0---2--------|
--2---2---0--------|
--2---3------------|
--0----------------|

--3------3---3--3-----3-2----|
--3--3--3---3---3----3-3-----|
--0--2--0---2---0----2-2-----|
--0--0--2---0---2----0-0-----|
--2--0--2--------3-----------|
--3--2--0--------------------|

--------0-------------0--------------0----------------------------|
-----------3-------------3--------------3-------1----0------------|
-----0-------------0--------------0----------------0--------------|
--2-------------0-------------------------------------------------|
--------------------------------3-----------3---------------------|
------------------------------------------------------------------|

--------0-------------0--------------0----------------------------|
-----------3-------------3--------------3-------1----0------------|
-----0-------------0--------------0----------------0--------------|
--2-------------0-------------------------------------------------|
--------------------------------3-----------3---------------------|
------------------------------------------------------------------|

--------0-------------0--------------0-----------0------|
-----------3-------------3--------------3-----------3---|
-----0-------------0--------------0-----------0---------|
--2-------------0---------------------------------------|
--------------------------------3-----------3-----------|
--------------------------------------------------------|

----------------------------------------------------------|
---------3-----------3-------------3----------------------|
------0-----0-----0----0-------0----0---------------------|
-------------------------------0--------------------------|
--0-------------0-----------------------------------------|
----------------------------------------------------------|

--3---3---3--------|
--3---3---3--------|
--0---0---2--------|
--2---2---0--------|
--2---3------------|
--0----------------|

--3------3---3--3-----3-2----|
--3--3--3---3---3----3-3-----|
--0--2--0---2---0----2-2-----|
--0--0--2---0---2----0-0-----|
--2--0--2--------3-----------|
--3--2--0--------------------|

--3---3---3--------|
--3---3---3--------|
--0---0---2--------|
--2---2---0--------|
--2---3------------|
--0----------------|

--3------3---3--3-----3-2----|
--3--3--3---3---3----3-3-----|
--0--2--0---2---0----2-2-----|
--0--0--2---0---2----0-0-----|
--2--0--2--------3-----------|
--3--2--0--------------------|

--------0-------------0--------------0----------------------------|
-----------3-------------3--------------3-------1----0------------|
-----0-------------0--------------0----------------0--------------|
--2-------------0-------------------------------------------------|
--------------------------------3-----------3---------------------|
------------------------------------------------------------------|

--------0-------------0--------------0----------------------------|
-----------3-------------3--------------3-------1----0------------|
-----0-------------0--------------0----------------0--------------|
--2-------------0-------------------------------------------------|
--------------------------------3-----------3---------------------|
------------------------------------------------------------------|

--------0-------------0--------------0----------------------------|
-----------3-------------3--------------3-------1----0------------|
-----0-------------0--------------0----------------0--------------|
--2-------------0-------------------------------------------------|
--------------------------------3-----------3---------------------|
------------------------------------------------------------------|

--------0-------------0--------------0----------------------------|
-----------3-------------3--------------3-------1----0------------|
-----0-------------0--------------0----------------0--------------|
--2-------------0-------------------------------------------------|
--------------------------------3-----------3---------------------|
------------------------------------------------------------------|
--------0-------------0--------------0-----------0----------------|
-----------3-------------3--------------3-----------3-------------|
-----0-------------0--------------0-----------0-------------------|
--2-------------0-------------------------------------------------|
--------------------------------3-----------3---------------------|
------------------------------------------------------------------|
you've gone and left me on the ground
----------------------------------------------------------|
---------3-----------3-------------3----------------------|
------0-----0-----0----0-------0----0---------------------|
-------------------------------0--------------------------|
--0-------------0-----------------------------------------|
----------------------------------------------------------|


Strumming Not Shown

--3---3---3--------|
--3---3---3--------|
--0---0---2--------|
--2---2---0--------|
--2---3------------|
--0----------------|

--3---3---3--------|
--3---3---3--------|
--0---0---2--------|
--2---2---0--------|
--2---3------------|
--0----------------|

--3------3---3--3-----3-2----|
--3--3--3---3---3----3-3-----|
--0--2--0---2---0----2-2-----|
--0--0--2---0---2----0-0-----|
--2--0--2--------3-----------|
--3--2--0--------------------|

--------0-------------0--------------0----------------------------|
-----------3-------------3--------------3-------1----0------------|
-----0-------------0--------------0----------------0--------------|
--2-------------0-------------------------------------------------|
--------------------------------3-----------3---------------------|
------------------------------------------------------------------|

--------0-------------0--------------0----------------------------|
-----------3-------------3--------------3-------1----0------------|
-----0-------------0--------------0----------------0--------------|
--2-------------0-------------------------------------------------|
--------------------------------3-----------3---------------------|
------------------------------------------------------------------|

--------0-------------0--------------0-----------0------|
-----------3-------------3--------------3-----------3---|
-----0-------------0--------------0-----------0---------|
--2-------------0---------------------------------------|
--------------------------------3-----------3-----------|
--------------------------------------------------------|

----------------------------------------------------------|
---------3-----------3-------------3----------------------|
------0-----0-----0----0-------0----0---------------------|
-------------------------------0--------------------------|
--0-------------0-----------------------------------------|
----------------------------------------------------------|

--3---3---3--------|
--3---3---3--------|
--0---0---2--------|
--2---2---0--------|
--2---3------------|
--0----------------|

--3------3---3--3-----3-2----|
--3--3--3---3---3----3-3-----|
--0--2--0---2---0----2-2-----|
--0--0--2---0---2----0-0-----|
--2--0--2--------3-----------|
--3--2--0--------------------|

--3---3---3--------|
--3---3---3--------|
--0---0---2--------|
--2---2---0--------|
--2---3------------|
--0----------------|

--3------3---3--3-----3-2----|
--3--3--3---3---3----3-3-----|
--0--2--0---2---0----2-2-----|
--0--0--2---0---2----0-0-----|
--2--0--2--------3-----------|
--3--2--0--------------------|

--------0-------------0--------------0----------------------------|
-----------3-------------3--------------3-------1----0------------|
-----0-------------0--------------0----------------0--------------|
--2-------------0-------------------------------------------------|
--------------------------------3-----------3---------------------|
------------------------------------------------------------------|

--------0-------------0--------------0----------------------------|
-----------3-------------3--------------3-------1----0------------|
-----0-------------0--------------0----------------0--------------|
--2-------------0-------------------------------------------------|
--------------------------------3-----------3---------------------|
------------------------------------------------------------------|

--------0-------------0--------------0----------------------------|
-----------3-------------3--------------3-------1----0------------|
-----0-------------0--------------0----------------0--------------|
--2-------------0-------------------------------------------------|
--------------------------------3-----------3---------------------|
------------------------------------------------------------------|

--------0-------------0--------------0----------------------------|
-----------3-------------3--------------3-------1----0------------|
-----0-------------0--------------0----------------0--------------|
--2-------------0-------------------------------------------------|
--------------------------------3-----------3---------------------|
------------------------------------------------------------------|
Добавлено: 18.04.2012
Другие материалы по этой песне:

Страница создана 09.03.2012
http://primanota.ru/juliana-theory/something-isnt-right-here-chords.htm
Привет, Гость.
Предлагаем пройти революционный курс по гитаре.
Подарок от PrimaNota.Ru, забирай!