PrimaNota.ru - самый крупный в мире бесплатный архив песенных текстов, аккордов, табулатур и нот


Juliana Hatfield - Live On Tomorrow - аккорды и текст, таба, видео

Регистрация Запомнить меня
Войти через:  Facebook Google Twitter Vk Yandex Mail.ru

Juliana Hatfield - Live On Tomorrow - аккорды и текст, таба, видео

Печатать
Просмотров: 154
Live On Tomorrow
Juliana Hatfield
		   From Marek@chicago.avenew.com Sun Mar  9 21:14:57 1997



Author/Artist: Juliana Hatfield
Title: Live on tomorrow
Album: Only Everything
Transcribed by: Jeff Marek
Email: marek@chicago.avenew.com

Chords used:
D5-xx022x
D-xx0232
E5-0200xx
A5-x022xx
G-3x0033

Listen to the record to get the timing

Intro:
Play this 3 times: D5 D       E5 A5
Then play this once: G          D

D             A5      D              A5
Put me in the shower, Pull me out of bed.

D          A5          G             D
Am I only dreaming, or did I wake up dead?

D               A5       D              A5
Throw me in the garbage, shackled up in chains.

D                  A5          G           D
But I still got my boots on so I can walk away.

G                                 D
A heartbeat says you haven't died.

G                          D
You gotta try to say alive.

D               A5        D               A5
Leave me to the vultures, Throw me to the wolves.

D            A5           G         D
I'll live on tomorrow and purity of soul.

D              A5     D         A5
Dump me in the ocean, tied to a piano.

D                        A5        G                 D
But you forgot to rip my heart out before you let me go.

G                                 D
A heartbeat says you haven't died.

G                          D
You gotta try to say alive.

D              A5        D                   A5
Lock me in the basement, without anything to eat.

D               A5    G                     D
You can hurt my body, but you can't hurt me.


here's the solo:
------------------------------------------------------------------------|
------------------------------------------------------------------------|
--------------------------------------------------------------4-----7---|
--4-2-0-0---2-4-0-0h2-----4-2-0-0---2-4-0-2---2---4-5-7-7---5---7-------|
------------------------------------------------------------------------|
------------------------------------------------------------------------|


-------------------------------------------------5-5-----------------------|
-------------5---5-----------------7---5-----7-8--------8-7-5-5-----5------|
-6-7---6-7-------------6-7---6-7----------------------------------7--------|
---------------------------------------------------------------------------|
---------------------------------------------------------------------------|
---------------------------------------------------------------------------|


-----------------------------------------------|
--6h7---7--------------------------------9-----|
------------9---7---7-----5---7---9--7---------|
-----------------------------------------------|
-----------------------------------------------|
-----------------------------------------------|     
Добавлено: 04.06.2013
Другие материалы по этой песне:
  • Аккорды и текст

Страница создана 25.02.2012
http://primanota.ru/juliana-hatfield/live-on-tomorrow-chords.htm
Привет, Гость.
Предлагаем пройти революционный курс по гитаре.
Подарок от PrimaNota.Ru, забирай!