PrimaNota.ru - самый крупный в мире бесплатный архив песенных текстов, аккордов, табулатур и нот


Julian Plenti - Games For Days - текст песни, таба, видео

Регистрация Запомнить меня
Войти через:  Facebook Google Twitter Vk Yandex Mail.ru

Julian Plenti - Games For Days - текст песни, таба, видео

Печатать
Просмотров: 219
                       "Games For Days"
                             by
                        Julian Plenti


NOTE: In my opinion, the best song on the album. Enjoy!
(INTRO-repeat 2x)
e|------------------------------------------------|
B|------------------------------------------------|
G|----10---10---10---10-----18----18----18----18--|
D|------------------------------------------------|
A|--8----8----8----8-----16----16----16----16-----|
E|------------------------------------------------|

e|---------------------------------------------------------|
B|---------------------------------------------------------|
G|-----13----13----13----13----17----17----15----13---10---|
D|---------------------------------------------------------|
A|--11----11----11----11----15----15----13----11----8------|
E|---------------------------------------------------------|

(Verse 1 - Palm Muted with distortion)
"In your eyes, I am magnified..."
e|--------------------------------------|
B|--------------------------------------|
G|--------------------------------------|
D|-----6-6-6-5-5--------6-6-6-5-5-------|
A|---------------x----------------x-----|
E|-8-8--------------8-8-----------------|

"Cause you taste just like the river..."
e|---------------------------------|
B|---------------------------------|
G|--------------------------5------|
D|-5---5---5---5---5---5------5----|
A|---7---7---7---7---6---6---------|
E|---------------------------------|

"Babe, you've played my heart..."
e|--------------------------------------------------------------------|
B|--------------------------------------------------------------------|
G|-----6-6-6-5-5--------6-6-6-5-5--------6-6-6-5-5-------6-6-6-5-5----|
D|---------------6----------------6--6-6-----------6-8-8-----------6--|
A|-8-8--------------6-6-----------------------------------------------|
E|--------------------------------------------------------------------|


(Verse 2 - Palm Muted with distortion) 
"In your eyes, I've been televised..."
e|--------------------------------------|  (At one point Paul
B|--------------------------------------|   kinda does like
G|--------------------------------------|   a power chord
D|-----6-6-6-5-5---------6-6-6-5-5------|   when he strums
A|---------------x-10-10-----------x----|   the low E)
E|-8-8--------------8-8-----------------|

"Cause you taste just like the river..."
e|---------------------------------|
B|---------------------------------|
G|--------------------------5------|
D|-5---5---5---5---5---5------5----|
A|---7---7---7---7---6---6---------|
E|---------------------------------|

"Babe, you've played my heart..."
e|--------------------------------------------------------------------|
B|--------------------------------------------------------------------|
G|-----6-6-6-5-5--------6-6-6-5-5--------6-6-6-5-5-------6-6-6-5-5----|
D|---------------6----------------6--6-6-----------6-8-8-----------6--|
A|-8-8--------------6-6-----------------------------------------------|
E|--------------------------------------------------------------------|


(DRUM BUILD UP!)


(CHORUS)
"Games for days, where did you find them?"
e|-------------------------------------------------------------------|
B|-------------------------------------------------------------------|
G|-10--10--10--10--10--10--10--10---18--18--18--18--18--18--18--18---|
D|--x---x---x---x---x---x---x---x----x---x---x---x---x---x---x---x---|
A|--8---8---8---8---8---8---8---8---16--16--16--16--16--16--16--16---|
E|-------------------------------------------------------------------|

e|----------------------------------------------------------------------|
B|----------------------------------------------------------------------|
G|-13--13--13--13--13--13--13--13---17--17--17--17--15--15--13--13--10--|
D|--x---x---x---x---x---x---x---x----x---x---x---x---x---x---x---x---x--|
A|-11--11--11--11--11--11--11--11---15--15--15--15--13--13--11--11---8--|
E|----------------------------------------------------------------------|

"Games all day, we're thankful to find them."
e|-------------------------------------------------------------------|
B|-------------------------------------------------------------------|
G|-10--10--10--10--10--10--10--10---18--18--18--18--18--18--18--18---|
D|--x---x---x---x---x---x---x---x----x---x---x---x---x---x---x---x---|
A|--8---8---8---8---8---8---8---8---16--16--16--16--16--16--16--16---|
E|-------------------------------------------------------------------|

e|----------------------------------------------------------------------|
B|----------------------------------------------------------------------|
G|-13--13--13--13--13--15--15--13---17--17--17--17--15--15--13--13--10--|
D|--x---x---x---x---x---x---x---x----x---x---x---x---x---x---x---x---x--|
A|-11--11--11--11--11--13--13--11---15--15--15--15--13--13--11--11---8--|
E|----------------------------------------------------------------------|

"Games all day, help me to shine them."
e|-------------------------------------------------------------------|
B|-------------------------------------------------------------------|
G|-10--10--10--10--10--10--10--10---18--18--18--18--18--18--20--20---|
D|--x---x---x---x---x---x---x---x----x---x---x---x---x---x---x---x---|
A|--8---8---8---8---8---8---8---8---16--16--16--16--16--16--18--18---|
E|-------------------------------------------------------------------|

e|----------------------------------------------------------------------|
B|----------------------------------------------------------------------|
G|-13--13--13--13--13--15--15--13---17--17--17--17--15--15--13--13--10--|
D|--x---x---x---x---x---x---x---x----x---x---x---x---x---x---x---x---x--|
A|-11--11--11--11--11--13--13--11---15--15--15--15--13--13--11--11---8--|
E|----------------------------------------------------------------------|

"Play all day, I won't let the party die."
e|-------------------------------------------------------------------|
B|-------------------------------------------------------------------|
G|-10--10--10--10--10--10--10--10---18--18--18--18--18--18--20--20---|
D|--x---x---x---x---x---x---x---x----x---x---x---x---x---x---x---x---|
A|--8---8---8---8---8---8---8---8---16--16--16--16--16--16--18--18---|
E|-------------------------------------------------------------------|

e|----------------------------------------------------------------------|
B|----------------------------------------------------------------------|
G|-13--13--13--13--13--15--15--13---17--17--17--17--15--15--13--13--10--|
D|--x---x---x---x---x---x---x---x----x---x---x---x---x---x---x---x---x--|
A|-11--11--11--11--11--13--13--11---15--15--15--15--13--13--11--11---8--|
E|----------------------------------------------------------------------|


(Bridge)
"I can't say I've seen them part..."
e|-1-1-1---1--------------------------------------------------|
B|-------1---1---4-4-4---4---4-4-4---4------------------------| (Not too 
G|---------------------3---3-------3---3---6-6-6-6-5-5-5-5----| sure about
D|------------------------------------------------------------|  that last
A|------------------------------------------------------------|   part.)
E|------------------------------------------------------------|

"You know you're my queen of hearts..."
Guitar 1
e|-1-1-1-4-1---------4-1------------4-1----------------------|
B|-----------1-1-1-1-----1--4-4-4-4-----1--6-6-6-5-8-8-5-5---| 
G|-----------------------------------------------------------|
D|-----------------------------------------------------------|
A|-----------------------------------------------------------|
E|-----------------------------------------------------------|

Guitar 2
e|-------------------------------------------------------------------|
B|-------------------------------------------------------------------|
G|-10--10--10--10--10--18--10--10---10--10--10--10--10--18--10--10---|
D|--x---x---x---x---x---x---x---x----x---x---x---x---x---x---x---x---|
A|--8---8---8---8---8--16---8---8----8---8---8---8---8--16---8---8---|
E|-------------------------------------------------------------------|

"Babe, you've played my heart..."
e|--------------------------------------------------------------------|
B|--------------------------------------------------------------------|
G|-----6-6-6-5-5--------6-6-6-5-5--------6-6-6-5-5-------6-6-6-5-5----|
D|---------------6----------------6--6-6-----------6-8-8-----------6--|
A|-8-8--------------6-6-----------------------------------------------|
E|--------------------------------------------------------------------|

Guitar 2
e|-------------------------------------------------------------------|
B|-------------------------------------------------------------------|
G|-10--10--10--10--10--18--10--10---10--10--10--10--10--18--10--10---|
D|--x---x---x---x---x---x---x---x----x---x---x---x---x---x---x---x---|
A|--8---8---8---8---8--16---8---8----8---8---8---8---8--16---8---8---|
E|-------------------------------------------------------------------|

(CHORUS 2)
(CHORUS)
"Games for days, where did you find them?"
e|-------------------------------------------------------------------|
B|-------------------------------------------------------------------|
G|-10--10--10--10--10--10--10--10---18--18--18--18--18--18--18--18---|
D|--x---x---x---x---x---x---x---x----x---x---x---x---x---x---x---x---|
A|--8---8---8---8---8---8---8---8---16--16--16--16--16--16--16--16---|
E|-------------------------------------------------------------------|

e|----------------------------------------------------------------------|
B|----------------------------------------------------------------------|
G|-13--13--13--13--13--13--13--13---17--17--17--17--15--15--13--13--10--|
D|--x---x---x---x---x---x---x---x----x---x---x---x---x---x---x---x---x--|
A|-11--11--11--11--11--11--11--11---15--15--15--15--13--13--11--11---8--|
E|----------------------------------------------------------------------|

"Games all day, we're thankful to find them."
e|-------------------------------------------------------------------|
B|-------------------------------------------------------------------|
G|-10--10--10--10--10--10--10--10---18--18--18--18--18--18--18--18---|
D|--x---x---x---x---x---x---x---x----x---x---x---x---x---x---x---x---|
A|--8---8---8---8---8---8---8---8---16--16--16--16--16--16--16--16---|
E|-------------------------------------------------------------------|

e|----------------------------------------------------------------------|
B|----------------------------------------------------------------------|
G|-13--13--13--13--13--15--15--13---17--17--17--17--15--15--13--13--10--|
D|--x---x---x---x---x---x---x---x----x---x---x---x---x---x---x---x---x--|
A|-11--11--11--11--11--13--13--11---15--15--15--15--13--13--11--11---8--|
E|----------------------------------------------------------------------|

"Games all day, help me to shine them."
e|-------------------------------------------------------------------|
B|-------------------------------------------------------------------|
G|-10--10--10--10--10--10--10--10---18--18--18--18--18--18--20--20---|
D|--x---x---x---x---x---x---x---x----x---x---x---x---x---x---x---x---|
A|--8---8---8---8---8---8---8---8---16--16--16--16--16--16--18--18---|
E|-------------------------------------------------------------------|

e|----------------------------------------------------------------------|
B|----------------------------------------------------------------------|
G|-13--13--13--13--13--15--15--13---17--17--17--17--15--15--13--13--10--|
D|--x---x---x---x---x---x---x---x----x---x---x---x---x---x---x---x---x--|
A|-11--11--11--11--11--13--13--11---15--15--15--15--13--13--11--11---8--|
E|----------------------------------------------------------------------|

"Play all day, I won't let the party die."
e|-------------------------------------------------------------------|
B|-------------------------------------------------------------------|
G|-10--10--10--10--10--10--10--10---18--18--18--18--18--18--20--20---|
D|--x---x---x---x---x---x---x---x----x---x---x---x---x---x---x---x---|
A|--8---8---8---8---8---8---8---8---16--16--16--16--16--16--18--18---|
E|-------------------------------------------------------------------|

e|----------------------------------------------------------------------|
B|----------------------------------------------------------------------|
G|-13--13--13--13--13--15--15--13---17--17--17--17--15--15--13--13--10--|
D|--x---x---x---x---x---x---x---x----x---x---x---x---x---x---x---x---x--|
A|-11--11--11--11--11--13--13--11---15--15--15--15--13--13--11--11---8--|
E|----------------------------------------------------------------------

"This is how we learn..."
e|---------------|
B|---------------|  (These are the chords you play when the
G|--7--6--9--10--|   song changes up at the end. I'm too lazy
D|--x--x--x---x--|   to tab out how it really goes. Its pretty
A|--5--4--7---8--|   easy to figure it out.)
E|---------------|


                          

                          "This is amazing..."
Добавлено: 21.07.2012
Другие материалы по этой песне:

Страница создана 01.03.2012
http://primanota.ru/julian-plenti/games-for-days-chords.htm
Привет, Гость.
Предлагаем пройти революционный курс по гитаре.
Подарок от PrimaNota.Ru, забирай!