PrimaNota.ru - самый крупный в мире бесплатный архив песенных текстов, аккордов, табулатур и нот


Julian Plenti - Fun That We Have - таба, видео

Регистрация Запомнить меня
Войти через:  Facebook Google Twitter Vk Yandex Mail.ru

Julian Plenti - Fun That We Have - таба, видео

Печатать
Просмотров: 173
-----------------------------------------------------------------
FUN THAT WE HAVE - Julian Plenti
-----------------------------------------------------------------
Tabbed by: Nick G.
Email:NicholasGuerra3@gmail.com

Tuning: STANDARD


Verse
e|---------------------------------------------------------------|
B|---------------------------------------------------------------|
G|---------------------------------------------------------------|
D|---------------------------------------------------------------| x8
A|------10--x8----------5--x8---------8--x8-----------7--x8------|
E|------8---------------3-------------6---------------5----------|
   Palm Mute .....................................................


Chorus
e|---------------------------------------------------------------|
B|---13~-10~-----8~-10~-11~-8~-11~-8~-13~-11~---8~-10~-11~-8~----|
G|---------------------------------------------------------------|
D|---------------------------------------------------------------|
A|---------------------------------------------------------------|
E|---------------------------------------------------------------|

e|---------------------------------------|
B|---8~--10~--11~---13~-11~-10~----------|
G|---------------------------------------|
D|---------------------------------------|
A|---------------------------------------|
E|---------------------------------------|


Bridge
e|-------------------------------------|
B|-------6~-5~-3~-1~----3~-------------|
G|-------------------3~-----2~--0~-----|
D|-------------------------------------|
A|-------------------------------------|
E|-------------------------------------|


| ~  vibrato
| +  harmonic
| .   Mute note
Добавлено: 27.04.2012
Другие материалы по этой песне:
  • Аккорды и текст

Страница создана 27.04.2012
http://primanota.ru/julian-plenti/fun-that-we-have-chords.htm
Привет, Гость.
Предлагаем пройти революционный курс по гитаре.
Подарок от PrimaNota.Ru, забирай!