PrimaNota.ru - самый крупный в мире бесплатный архив песенных текстов, аккордов, табулатур и нот


Julian Casablancas The Voidz - Dare I Care - таба, видео

Регистрация Запомнить меня
Войти через:  Facebook Google Twitter Vk Yandex Mail.ru

Julian Casablancas The Voidz - Dare I Care - таба, видео

Печатать
Просмотров: 140
Авторы: Julian Casablancas

-------------------------------------------------------------------------------
                             Dare I Care - Julian Casablancas+The Voidz
-------------------------------------------------------------------------------
Tabbed by:iiKOii
E-mail:kevio19@live.com

Tuning:
Intro
e|---------------------------------------------------------------------------|
B|--------12----------10-----------------------------------------------------|
G|-------------\slide\-------------------------------------------------------|
D|--------9-----------7------------------------------------------------------|
A|---------------------------------------------------------------------------|
E|---------------------------------------------------------------------------|X4
main riff
e|---------------------------------------------------------------------------|
B|---------------------------------------------------------------------------|
G|---------------------------------------------------------------------------|
D|---------------------------------------------------------------------------|
A|---------------------------------------------------------------------------|
E|-------0------------7--10-----0-----------7----8---------------------------|
0:27
e|--------88--------------------88-------------------------------------------|
B|--------------55--------77-------------------------------------------------|
G|---------------------------------------------------------------------------|
D|---------------------------------------------------------------------------|
A|---------------------------------------------------------------------------|
E|---------------------------------------------------------------------------|
riff #2
e|---------------------------------------------------------------------------|
B|---------------------------------------------------------------------------|
G|---------------------------------------------------------------------------|
D|---------------------------------------------------------------------------|
A|--------77xp5--------------77xp5----------77xp5---------/10101010----------|
E|---------------------------------------------------------------------------|
0:33
e|--------------------------------------------------------12-12--------------|
B|---------12-12-------10-10------8-8----------12--12-----12-12---10-10------|
G|---------------------------------------------------------------------------|
D|---------------------------------------------------------------------------|
A|---------------------------------------------------------------------------|
E|---------------------------------------------------------------------------|
riff #3
e|----------12-12xp10--(repeats throughout)----12-12---15/17-----------------|
B|---------------------------------------------------------------------------|
G|---------------------------------------------------------------------------|
D|---------------------------------------------------------------------------|
A|---------------------------------------------------------------------------|
E|---------------------------------------------------------------------------|
repeats throughout song 
"mini solo" 0:55
e|---------------------------------------------------------------------------|
B|---------------------------------------------------------------------------|
G|---9br7-9-9-10-10(2x)--9br7--5-5-7-5---4-5-4-5----10-7---------------------|
D|---------------------------------------------------------------------------|
A|---------------------------------------------------------------------------|
E|---------------------------------------------------------------------------|(2x)

riff#4 1:20
e|---------------------------------------8-8-----12-12-----------------------|
B|------12-12-------10-10-------8-8--------------------12-12-----------------|
G|---------------------------------------------------------------------------|
D|---------------------------------------------------------------------------|
A|---------------------------------------------------------------------------|
E|---------------------------------------------------------------------------|
Chorus #1 (or whatever)
e|---------------------------------------------------------------------------|
B|---------------------------------------------------------------------------|
G|---------------------------------------------------------------------------|
D|---------------------------------------------------------------------------|
A|---2--2---2-2-2--------7--7---7-7-7-----9--9---9-9-9-----7--7---7-7-7------|
E|---0--0---0-0-0--------5--5---5-5-5-----7--7---7-7-7-----5--5---5-5-5------|x2
guitar 2
e|---------------------------------------------------------------------------|
B|---------------------------------------------------------------------------|
G|---99-99---9-9-9------1414-1414-14-14-14----1616-1616-16-16-16---1414-1414-|
D|---------------------------------------------------------------------------|
A|---------------------------------------------------------------------------|
E|---------------------------------------------------------------------------|

e|---------------------------------------------------------------------------|
B|---------------------------------------------------------------------------|
G|-14-14-14------------------------------------------------------------------|
D|---------------------------------------------------------------------------|
A|---------------------------------------------------------------------------|
E|---------------------------------------------------------------------------|x2

1;48
e|---------------------------------------------------------------------------|
B|---------------------------------------------------------------------------|
G|-----12----------5br----------7br--------------2br-------------------------|
D|-----14br--------5br----------7br--------------2br-------------------------|
A|---------------------------------------------------------------------------|
E|---------------------------------------------------------------------------|
Chorus #2
e|---------------------------------------------------------------------------|
B|---------------------------------------------------------------------------|
G|-----xxxx9(8x)----------14(16x)---------16(8x)-----------------------------|
D|---------------------------------------------------------------------------|
A|-----xxxx7(8x)----------12(16x)---------14(8x)-----------------------------|
E|---------------------------------------------------------------------------|
Chorus#2 riff
e|-12-12-12-15-12(2x)--9-9-9-12-9(2x)--9-9-9-14-9(2x)--10-10-10-14-10(2x)----|
B|---------------------------------------------------------------------------|
G|---------------------------------------------------------------------------|
D|---------------------------------------------------------------------------|
A|---------------------------------------------------------------------------|
E|---------------------------------------------------------------------------|

e|-9h10-9h10p9-------(if not it may end like this> 9h12-9h10p9)--------------|
B|---------------------------------------------------------------------------|
G|---------------------------------------------------------------------------|
D|---------------------------------------------------------------------------|
A|---------------------------------------------------------------------------|
E|---------------------------------------------------------------------------|
2;36
e|---------------------------------------------------------------------------|
B|---------------------------------------------------------------------------|
G|----12---------------------------------------------------------------------|
D|----14br-------------------------------------------------------------------|
A|-------------------------9h10p9---------------4h5p4------------------------|
E|---------------------------------------------------------------------------|

2:52
sometimes there is a droning sound that repeats throughout the song
e|---------------------------------------------------------------------------|
B|---------------------------------------------------------------------------|
G|---------------------------------------------------------------------------|
D|--------------------77-----------------------------------------------------|
A|---------------------------------------------------------------------------|
E|--------------------55-----------------------------------------------------|

mini solo #2 
3:01
e|---------------------------------------------------------------------------|
B|--16---------17-17-19-19-20-20-19-19--19---17-------15-15-17-17---15-------|
G|--18br-------------------------------------19br-------------------17br-----|
D|---------------------------------------------------------------------------|
A|---------------------------------------------------------------------------|
E|---------------------------------------------------------------------------|


Bass part
3:28
e|---------------------------------------------------------------------------|
B|---------------------------------------------------------------------------|
G|---------------------------------------------------------------------------|
D|---------------------------------------------------------------------------|
A|---------------------------------------------------------------------------|
E|-12---12-10---10-9---9-5---5-2--2-0---0-7---7-5----0-2---2-5---7-10---12-14|

e|---------------------------------------------------------------------------|
B|---------------------------------------------------------------------------|
G|---------------------------------------------------------------------------|
D|---------------------------------------------------------------------------|
A|---------------------------------------------------------------------------|
E|-12-9---10-7---9-5-----7-5-2-0---------------------------------------------|
repeat chorus #2

Solo 
4:04
e|---20--22-----15--14h15---14p12------10h12p10h12---10--9------14-15-17--22-|
B|---------------------------------------------------------------------------|
G|---------------------------------------------------------------------------|
D|---------------------------------------------------------------------------|
A|---------------------------------------------------------------------------|
E|---------------------------------------------------------------------------|

e|--14-------12-14-12-12-------9-10-12---------9-10-12--------9-10-12--------|
B|--------------------14b-----------14b--8----------14b--7---------14b-8---7-|
G|---------------------------------------10b-------------9b/-----------10b-9b|
D|---------------------------------------------------------------------------|
A|---------------------------------------------------------------------------|
E|---------------------------------------------------------------------------|
repeat chorus #2

outro
5:33
e|---------------------------------------------------------------------------|
B|---------------------------------------------------------------------------|
G|---9------16-----14-----16-------------------------------------------------|
D|---------------------------------------------------------------------------|
A|---7------14-----12-----14-------------------------------------------------|
E|---------------------------------------------------------------------------|
other riff
e|---12-12-12-15-12(2x)---10-10-10-14-10(2x)---9-9-9-14-9(2x)--10-10-10-14-10|
B|---------------------------------------------------------------------------|
G|---------------------------------------------------------------------------|
D|---------------------------------------------------------------------------|
A|---------------------------------------------------------------------------|
E|---------------------------------------------------------------------------|

e|-9-10-9-----(if not> 9-10-12)----------------------------------------------|
B|---------------------------------------------------------------------------|
G|---------------------------------------------------------------------------|
D|---------------------------------------------------------------------------|
A|---------------------------------------------------------------------------|
E|---------------------------------------------------------------------------|
5:55
e|--7---------9--------------------------------------------------------------|
B|--8---------10----------12-------------------------------------------------|
G|--9---------9-----------11-------------------------------------------------|
D|---------------------------------------------------------------------------|
A|---------------------------------------------------------------------------|
E|---------------------------------------------------------------------------| listen to song for rhythm
bass part
e|---------------------------------------------------------------------------|
B|---------------------------------------------------------------------------|
G|---------------------------------------------------------------------------|
D|---------------------------------------------------------------------------|
A|---------------------------------------------------------------------------|
E|---0---2--3--5-5---7---10----14--12---9---7--5---7--5--3-2-----0--2--3--5-5|

e|---------------------------------------------------------------------------|
B|---------------------------------------------------------------------------|
G|---------------------------------------------------------------------------|
D|---------------------------------------------------------------------------|
A|---------------------------------------------------------------------------|
E|---7---10--14-----5-5-5-5----7-7-7h9--5h7---2p0----------------------------|




************************************

| /   slide up
| \   slide down
| h   hammer-on
| p   pull-off
| ~   vibrato
| +   harmonic
| x   Mute note
| b   Bend
| pb  Pre-bend
| br  Bend release
| pbr Pre-bend release
| brb Bend release bend

************************************
Добавлено: 24.06.2015
Другие материалы по этой песне:
  • Аккорды и текст

Страница создана 24.06.2015
http://primanota.ru/julian-casablancas-voidz/dare-i-care-chords.htm
Привет, Гость.
Предлагаем пройти революционный курс по гитаре.
Подарок от PrimaNota.Ru, забирай!