PrimaNota.ru - самый крупный в мире бесплатный архив песенных текстов, аккордов, табулатур и нот


Julia - Sleepwalk - бас-таба, видео

Регистрация Запомнить меня
Войти через:  Facebook Google Twitter Vk Yandex Mail.ru

Julia - Sleepwalk - бас-таба, видео

Печатать
Просмотров: 230
Уроки эстрадного вокала в Санкт-Петербурге
Авторы музыки: Alexander Schuster, Alexander Schell, Matthias Kobold, Karl Mayr
Авторы текста: Matthias Kobold
-------------------------------------------------------------------------------
			     Sleepwalk - Julia
-------------------------------------------------------------------------------

Tabbed By : David Ziemann
e-mail: david@janefool.eu

Tuning: D-A-D-G

Intro:
G|---------------------------------------------------------------------------|
D|--------------------6-6-6-6-6-6-6------------------467---------------------|
A|11/4-4-4-4-4-4-4-4----------------4-5-5-5-5-5-5-5-5-----------------3------|
D|------------------------------------------------------7-7-7-7-7-7-7--------|

Verse (3x):
G|---------------------------------------------------------------------------|
D|-----------------6-6-6-6-6-6-6------------------467------------------------|
A|4-4-4-4-4-4-4-4----------------4-5-5-5-5-5-5-5-5-----------------3---------|
D|---------------------------------------------------7-7-7-7-7-7-7-----------|

then play:
G|---------------------------------------------------------------------------|
D|-----------------6-6-6-6-6-6-6------------------467------------------------|
A|4-4-4-4-4-4-4-4----------------4-5-5-5-5-5-5-5-5---------------------------|
D|---------------------------------------------------7-7-7-7-7-7-7-7---------|

Chorus:
G|--------------------------------6------------------------------------------|
D|----------------------------------------------------------4-4-2------------|
A|----------------2-2-2-2-2-2-2-2---4-4-4-4-4-4-4----------------------------|
D|0-0-0-0-0-0-0-0---------------------------------4-4-4-4-4------------------|

G|---------------------------------------------------------------------------|
D|----------------------------------------------------------4-4-2------------|
A|----------------0-0-0-0-0-0-0-0-4-4-4-4-4-4-4-4-----------------4~---------|
D|0-0-0-0-0-0-0-0---------------------------------4-4-4-4-4------------------|

Bridge:
G|---------------------------------------------------------------------------|
D|-------------467-----------------------------------------------------------|
A|5-5-5-5-5-5-5--------------------------------------------------------------|
D|----------------7-7-7-7-7-7-7----------------------------------------------|

Verse(2x):
G|---------------------------------------------------------------------------|
D|-----------------6-6-6-6-6-6-6------------------467------------------------|
A|4-4-4-4-4-4-4-4----------------4-5-5-5-5-5-5-5-5-----------------3---------|
D|---------------------------------------------------7-7-7-7-7-7-7-----------|

then play:
G|---------------------------------------------------------------------------|
D|-----------------6-6-6-6-6-6-6------------------467------------------------|
A|4-4-4-4-4-4-4-4----------------4-5-5-5-5-5-5-5-5---------------------------|
D|---------------------------------------------------7-7-7-7-7-7-7-7---------|

Chorus:
G|--------------------------------6------------------------------------------|
D|----------------------------------------------------------4-4-2------------|
A|----------------2-2-2-2-2-2-2-2---4-4-4-4-4-4-4----------------------------|
D|0-0-0-0-0-0-0-0---------------------------------4-4-4-4-4------------------|

G|---------------------------------------------------------------------------|
D|----------------------------------------------------------4-4-2------------|
A|----------------0-0-0-0-0-0-0-0-4-4-4-4-4-4-4-4----------------------------|
D|0-0-0-0-0-0-0-0---------------------------------4-4-4-4-4------------------|

Guitar Solo:
G|---------------------------------------------------------------------------|
D|---------------------------------------------------------------------------|
A|---------------/2-2-2-2-2-2-2-2--------------------------------------------|
D|0-0-0-0-0-0-0-0-----------------4-4-4-4-4----2-4-4-4-4-4--2----------------|

G|---------------------------------------------------------------------------|
D|---------------------------------------------------------------------------|
A|---------------------------------------------------------------------------|
D|0-0-0-0-0-0-0-0-2-2-2-2-2-2-2-2-4-4-4-4-4-4-4-4-/16~-----------------------|

Breakdown(Bass Solo):
G|---------------------------------------------------------------------------|
D|------11h12p11-------------------------------------------------------------|
A|2-4-4---------9-9h11~---9-11-12~---------2-4-5~---0---2--------------------|
D|---------------------------------------------------------------------------|

Breakdown(2x):
G|---------------------------------------------------------------------------|
D|---11h12p11----------------------------------------------------------------|
A|4-----------9-11~-----9-11-12~---------2-4-5~---0---2----------------------|
D|---------------------------------------------------------------------------|

G|---------------------------------------------------------------------------|
D|---11h12p11----------------------------------------------------------------|
A|4-----------9-11~-----9-11-12~---------2-4-5~---0--------------------------|
D|----------------------------------------------------2----------------------|

G|---------------------------------------------------------------------------|
D|---------------------------------------------------------------------------|
A|---------------------------------------------------------------------------|
D|0-0-0-0-0-0-0-0-2-2-2-2-2-2-2-2-4-4-4-4-4-4-4-4-4-4-4-4-4-4-2--------------|

G|---------------------------------------------------------------------------|
D|---------------------------------------------------------------------------|
A|---------------------------------------------------------------------------|
D|0-0-0-0-0-0-0-0-2-2-2-2-2-2-2-2-4-4-4-4-4-4-4-4-4-4-4-4-4-4/16~------------|

Chorus:
G|--------------------------------6------------------------------------------|
D|----------------------------------------------------------4-4-2------------|
A|----------------2-2-2-2-2-2-2-2---4-4-4-4-4-4-4----------------------------|
D|0-0-0-0-0-0-0-0---------------------------------4-4-4-4-4------------------|

G|---------------------------------------------------------------------------|
D|----------------------------------------------------------4-4-2------------|
A|----------------0-0-0-0-0-0-0-0-4-4-4-4-4-4-4-4----------------------------|
D|0-0-0-0-0-0-0-0---------------------------------4-4-4-4-4------------------|

G|--------------------------------6------------------------------------------|
D|----------------------------------------------------------4-4-2------------|
A|----------------2-2-2-2-2-2-2-2---4-4-4-4-4-4-4----------------------------|
D|0-0-0-0-0-0-0-0---------------------------------4-4-4-4-4------------------|

G|---------------------------------------------------------------------------|
D|------------------------------------------------4-4-4-4-4-4-2-2------------|
A|----------------------------------------------------------------5~---------|
D|0-0-0-0-0-0-0-0-2-2-2-2-2-2-2-2-4-4-4-4-4-4-4-4----------------------------|

| /  slide up
| \  slide down
| h  hammer-on
| p  pull-off
| ~  vibrato
| +  harmonic
| x  Mute note
===============================================================================
Добавлено: 29.05.2012
Вам также может быть интересно:
Другие материалы по этой песне:
  • Аккорды и текст

Страница создана 29.05.2012
http://primanota.ru/julia/sleepwalk-chords.htm
Привет, Гость.
Предлагаем пройти революционный курс по гитаре.
Подарок от PrimaNota.Ru, забирай!