PrimaNota.ru - самый крупный в мире бесплатный архив песенных текстов, аккордов, табулатур и нот


Julia H Johnston - Grace Greater Than Our Sin - таба, видео

Регистрация Запомнить меня
Войти через:  Facebook Google Twitter Vk Yandex Mail.ru

Julia H Johnston - Grace Greater Than Our Sin - таба, видео

Печатать
Просмотров: 64
-------------------------------------------------------------------------------
          grace greater than our sin - Julia H. Johnston
-------------------------------------------------------------------------------
Tabbed by:
E-mail:
key of G
Tuning:E-A-D-G-B-e

e|---------------------------------------------------------------------------|
B|-------------------------0---------------------------------------------0---|
G|0-----0-----2---0---2-------2--0----------------0-2--------0---0---2---0---|
D|0--4--0-----3---2---0----0--0--0-----4----4-----0-3----4---0---0---0-------|
A|---5---------------------------------5----5------------5-------------------|
E|---------------------------------------------------------------------------|
  marvelous grace of our loving Lord grace that exceeds our sin and our guilt 
e|---------------------------------------------------------------------------|
B|--------------------0-----------------------------0----1---0---------------|
G|-0------0--2--0-2----------2----0------2-----2----0----0---0---2---0-------|
D|-0-4----0--3--2-0---0------3----2------2-----2-----------------2---0----4--|
A|---5--------------------------------------------------------------------5--|
E|---------------------------------------------------------------------------|
  yonder on calvary's mount out poured there where the blood of the Lamb was
e|---------------------------------------------------------------------------|
B|---------------------------------------------------------------------------|
G|--0------------------------------------------------------------------------|
D|--0------------------------------------------------------------------------|
A|---------------------------------------------------------------------------|
E|---------------------------------------------------------------------------|
  spilt
e|---------------------------------------------------------------------------|
B|--------0----------1------0-----------------------0---------------1--0-----|
G|--------0-----0----0------0-----2-----2----2---2------2----0------0--0-----|
D|--------------0-----------------3-----3----3---3--3---0----0---------------|
A|---------------------------------------------------------------------------|
E|---------------------------------------------------------------------------|
chorus: grace grace God's grace grace that will pardon and cleanse within 
e|---------------------------------------------------------------------------|
B|--0----------1------0---------------0---1--0-------------------------------|
G|--0-----0----0------0-----2----2----0---0--0----2---0-------0--------------|
D|--------0-----------------2----2----------------2---0---4---0--------------|
A|--------------------------------------------------------5------------------|
E|---------------------------------------------------------------------------|
  grace grace God's grace grace that is greater than all our sin


************************************

| /   slide up
| \   slide down
| h   hammer-on
| p   pull-off
| ~   vibrato
| +   harmonic
| x   Mute note
| b   Bend
| pb  Pre-bend
| br  Bend release
| pbr Pre-bend release
| brb Bend release bend

************************************
Добавлено: 14.06.2016
Другие материалы по этой песне:
  • Аккорды и текст

Страница создана 14.06.2016
http://primanota.ru/julia-h-johnston/grace-greater-than-our-sin-chords.htm
Привет, Гость.
Предлагаем пройти революционный курс по гитаре.
Подарок от PrimaNota.Ru, забирай!