PrimaNota.ru - самый крупный в мире бесплатный архив песенных текстов, аккордов, табулатур и нот


Julia Fordham - Porcelain - текст песни, таба, видео

Регистрация Запомнить меня
Войти через:  Facebook Google Twitter Vk Yandex Mail.ru

Julia Fordham - Porcelain - текст песни, таба, видео

Печатать
Просмотров: 92
drop the low e to a d. (To play with Julia, put the capo on 2)
 
A tender jazz love song. Julia has a 4 octave range. You've got to
hear Julia sing. I basically finger pick thumb, index, middle, ring,
to fill in the pace and tones.
If you like picking out some lead stuff (the instrumental section is rich
for harmonizing).
 
Transcribed by: Jeffrey Traver
Artist: Julia Fordham
Song:   Porcelain
Album:  Porcelain
Virgin Records ISBN: 0 7777 86147 2 2
www.juliafordham.com
 
 
 
Intro: -----
E---10-8-7--------------------------------5-3-2-----------------------------
B----------10-8-7--------------------------------5-3-5----------------------
G-----------------9-7-5-7-5-4-5-4-2-4-2----------------5-7-4-5-4-2-4-2------
D---------------------------------------------------------------------------
A---------------------------------------------------------------------------
D-0-------------------------------------0-----------------------------------
 
Verse 1: I am very much in like with you ...
 
 
    I am ...you   I hope ... I can  do  'cause  you   treat ... rare
E-------------------------------------------------------3------------------
B-----3-------1--3------------1--------------1----------3---------1--------
G----0--------2--0------------2-------------0---------------------2--------
D---0---------2--0------------2------------2----4-------2---------2--------
A--2---------0---2-----------0------------0-----------------------0--------
D--------------------------------------------------------------------------
 
Chorus: -----
 
             Oh isn't...giving...baby... isn't... oooh
E----------------3--------3----------------------------2-3-2-3-2-----------
B------------0---3--------1-------3-------3-------3-------------3---1------
G----------------0--------0-------0-------4-------4--------------4--2------
D--------0-2-----2--------0-------0-------4-------5-----------------2------
A--0-2-3--------------------------2-------2-------5----------------0-------
D-----------------------------------------------------------------------0--
 
Verse 2: I read a book like you, it says for what ...
 
-----Chorus: -----
 
Instrumental: -----
 
E---2-3-2-0---------------------2-3-2-0------------------------------------
B---3----------1------1---------3----------1-------------------------------
G---2---------0-------2---------2---------0--------------------------------
D-0----------2--------2-------0----------2---------------------------------
A-----------3----3-2-0--0-2-3-----------3----3-2-0-------------------------
D--------------------------------------------------0-----------------------
 
 
Verse 3: Sometimes I think I should say I love ...
 
-----Chorus: -----
-----Intro: -----
 
E-------2---------------------------------------------------------
B------3----------------------------------------------------------
G-----0-----------------------------------------------------------
D----0------------------------------------------------------------
A---2-------------------------------------------------------------
D----------------------------------------------------------------

     
Добавлено: 11.11.2013
Другие материалы по этой песне:
  • Аккорды и текст

Страница создана 01.07.2012
http://primanota.ru/julia-fordham/porcelain-chords.htm
Привет, Гость.
Предлагаем пройти революционный курс по гитаре.
Подарок от PrimaNota.Ru, забирай!