PrimaNota.ru - самый крупный в мире бесплатный архив песенных текстов, аккордов, табулатур и нот


Juli - Am Besten Sein - таба, видео

Регистрация Запомнить меня
Войти через:  Facebook Google Twitter Vk Yandex Mail.ru

Juli - Am Besten Sein - таба, видео

Печатать
Просмотров: 144
Авторы музыки: Andreas "Dedi" Herde, Simon Triebel, Eva Briegel
Авторы текста: Simon Triebel
Hey! 

This is my Version of the Juli song "Am Besten Sein"
I think it's pretty perfect. Please rate it. Thanks

Intro: (I couldn't really figure it out)

e-----|-----|
B-----|-----|
G-4~~-|-4~~-|
D-2~~-|-2~~-|
A-----|-----|
E-----|-----|

Verse: 

"Ihr wollt es immer noch höher..."

Guitar 1 & 2

e-----------------|-----------------|-----------------|-----------------|
B-----------------|-----------------|-----------------|-----------------|
G-4-4-4-4-4-4-4-4-|-----------------|-----------------|-----------------|  2x
D-4-4-4-4-4-4-4-4-|-4-4-4-4-4-4-4-4-|-5-5-5-5-5-5-5-5-|-7-7-7-7-7-7-7-7-|
A-2-2-2-2-2-2-2-2-|-4-4-4-4-4-4-4-4-|-5-5-5-5-5-5-5-5-|-7-7-7-7-7-7-7-7-|
E-----------------|-2-2-2-2-2-2-2-2-|-3-3-3-3-3-3-3-3-|-5-5-5-5-5-5-5-5-|

"Wir lassen los und bleiben stehen"

Guitar 1:

e-----------------|-----------------|-----------------|-----------------|
B-----------------|-----------------|-----------------|-----------------|
G-----------------|-----------------|-----------------|-7-7-7-7-7-7-7-7-|
D-5-5-5-5-5-5-5-5-|-7-7-7-7-7-7-7-7-|-9-9-9-9-9-9-9-9-|-7-7-7-7-7-7-7-7-|
A-5-5-5-5-5-5-5-5-|-7-7-7-7-7-7-7-7-|-9-9-9-9-9-9-9-9-|-5-5-5-5-5-5-5-5-|
E-3-3-3-3-3-3-3-3-|-5-5-5-5-5-5-5-5-|-7-7-7-7-7-7-7-7-|-----------------|


e-----------------|-----------------|---------|
B-----------------|-----------------|---------|
G-----------------|-----------------|---------|
D-5-5-5-5-5-5-5-5-|-5-5-5-5-5-5-5-5-|-4-------|
A-5-5-5-5-5-5-5-5-|-5-5-5-5-5-5-5-5-|-4-------|
E-3-3-3-3-3-3-3-3-|-3-3-3-3-3-3-3-3-|-2-------|


Guitar 2:

e-----------------|-----------------|
B-----------------|-----------------|
G-4-4-4-4-7-7-7-7-|-9-9-9-9-9-9-9-9-|
D-x-x-x-x-x-x-x-x-|-x-x-x-x-x-x-x-x-|
A-2-2-2-2-5-5-5-5-|-7-7-7-7-7-7-7-7-|
E-----------------|-----------------|


e-----------------|-------------------------|
B-----------------|-------------------------|
G-4-4-4-4-7-7-7-7-|-11-11-11-11-11-11-11-11-|
D-x-x-x-x-x-x-x-x-|-x--x--x--x--x--x--x--x--|
A-2-2-2-2-5-5-5-5-|-9--9--9--9--9--9--9--9--|
E-----------------|-------------------------|


"Ihr rennt los, wir bleiben stehen"

e-----------------|-----------------|-----|
B-----------------|-----------------|-----|
G-4-4-4-4-7-7-7-7-|-4-4-4-4-7-7-7-7-|-----|
D-x-x-x-x-x-x-x-x-|-x-x-x-x-x-x-x-x-|-4---|
A-2-2-2-2-5-5-5-5-|-2-2-2-2-5-5-5-5-|-4---|
E-----------------|-----------------|-2---|


Right before the Chorus:

Guitar 1 & 2

e---------|
B---------|
G-2-2-2-2-|
D-2-2-2-2-|
A-0-0-0-0-|
E---------|


Chorus:

"Wir wollen nicht die Besten sein, wir wollen unsere Herzen nicht verlieren..."

Guitar 1 & 2

e-----------------|-----------------|
B-----------------|-----------------|
G-4-4-4-4-6-6-6-6-|-7-7-7-7-6-6-6-6-|
D-4-4-4-4-6-6-6-6-|-7-7-7-7-6-6-6-6-| 3x
A-2-2-2-2-4-4-4-4-|-5-5-5-5-4-4-4-4-|
E-----------------|-----------------|

e-----------------|-----------------|
B-----------------|-----------------|
G-4-4-4-4-4-4-4-4-|-2-2-2-2-2-2-2-2-|
D-4-4-4-4-4-4-4-4-|-2-2-2-2-2-2-2-2-|
A-2-2-2-2-2-2-2-2-|-0-0-0-0-0-0-0-0-|
E-----------------|-----------------|

e-----------------|-----------------|
B-----------------|-----------------|
G-----------------|-9-9-9-9-9-9-9-9-|
D-2-2-2-2-2-2-2-2-|-9-9-9-9-9-9-9-9-|
A-2-2-2-2-2-2-2-2-|-7-7-7-7-7-7-7-7-|
E-0-0-0-0-0-0-0-0-|-----------------|

Xylophone plays something like that:

e-5--5-55--3---|-5--5-55--3-2-|-5--5-55--3---|-2-2-2-3----2----|
B------------3-|--------------|------------3-|----------5----3-|
G--------------|--------------|--------------|-----------------|
D--------------|--------------|--------------|-----------------|
A--------------|--------------|--------------|-----------------|
E--------------|--------------|--------------|-----------------|


Verse 2: 

"Ihr wollt es immer noch schöner..."

Guitar 1 & 2

e-----------------|-----------------|-----------------|-----------------|
B-----------------|-----------------|-----------------|-----------------|
G-4-4-4-4-4-4-4-4-|-----------------|-----------------|-----------------|  2x
D-4-4-4-4-4-4-4-4-|-4-4-4-4-4-4-4-4-|-5-5-5-5-5-5-5-5-|-7-7-7-7-7-7-7-7-|
A-2-2-2-2-2-2-2-2-|-4-4-4-4-4-4-4-4-|-5-5-5-5-5-5-5-5-|-7-7-7-7-7-7-7-7-|
E-----------------|-2-2-2-2-2-2-2-2-|-3-3-3-3-3-3-3-3-|-5-5-5-5-5-5-5-5-|

"Wir lassen los und bleiben stehen"

Guitar 1:

e-----------------|-----------------|-----------------|-----------------|
B-----------------|-----------------|-----------------|-----------------|
G-----------------|-----------------|-----------------|-7-7-7-7-7-7-7-7-|
D-5-5-5-5-5-5-5-5-|-7-7-7-7-7-7-7-7-|-9-9-9-9-9-9-9-9-|-7-7-7-7-7-7-7-7-|
A-5-5-5-5-5-5-5-5-|-7-7-7-7-7-7-7-7-|-9-9-9-9-9-9-9-9-|-5-5-5-5-5-5-5-5-|
E-3-3-3-3-3-3-3-3-|-5-5-5-5-5-5-5-5-|-7-7-7-7-7-7-7-7-|-----------------|


e-----------------|-----------------|---------|
B-----------------|-----------------|---------|
G-----------------|-----------------|---------|
D-5-5-5-5-5-5-5-5-|-5-5-5-5-5-5-5-5-|-4-------|
A-5-5-5-5-5-5-5-5-|-5-5-5-5-5-5-5-5-|-4-------|
E-3-3-3-3-3-3-3-3-|-3-3-3-3-3-3-3-3-|-2-------|


Guitar 2:

e-----------------|-----------------|
B-----------------|-----------------|
G-4-4-4-4-7-7-7-7-|-9-9-9-9-9-9-9-9-|
D-x-x-x-x-x-x-x-x-|-x-x-x-x-x-x-x-x-|
A-2-2-2-2-5-5-5-5-|-7-7-7-7-7-7-7-7-|
E-----------------|-----------------|


e-----------------|-------------------------|
B-----------------|-------------------------|
G-4-4-4-4-7-7-7-7-|-11-11-11-11-11-11-11-11-|
D-x-x-x-x-x-x-x-x-|-x--x--x--x--x--x--x--x--|
A-2-2-2-2-5-5-5-5-|-9--9--9--9--9--9--9--9--|
E-----------------|-------------------------|


"Ihr rennt los, wir bleiben stehen"

e-----------------|-----------------|-----|
B-----------------|-----------------|-----|
G-4-4-4-4-7-7-7-7-|-4-4-4-4-7-7-7-7-|-----|
D-x-x-x-x-x-x-x-x-|-x-x-x-x-x-x-x-x-|-4---|
A-2-2-2-2-5-5-5-5-|-2-2-2-2-5-5-5-5-|-4---|
E-----------------|-----------------|-2---|


Right before the Chorus:

Guitar 1 & 2

e---------|
B---------|
G-2-2-2-2-|
D-2-2-2-2-|
A-0-0-0-0-|
E---------|


Chorus:

"Wir wollen nicht die Besten sein, wir wollen unsere Herzen nicht verlieren..."

Guitar 1 & 2

e-----------------|-----------------|
B-----------------|-----------------|
G-4-4-4-4-6-6-6-6-|-7-7-7-7-6-6-6-6-|
D-4-4-4-4-6-6-6-6-|-7-7-7-7-6-6-6-6-| 3x
A-2-2-2-2-4-4-4-4-|-5-5-5-5-4-4-4-4-|
E-----------------|-----------------|

e-----------------|-----------------|
B-----------------|-----------------|
G-4-4-4-4-4-4-4-4-|-2-2-2-2-2-2-2-2-|
D-4-4-4-4-4-4-4-4-|-2-2-2-2-2-2-2-2-|
A-2-2-2-2-2-2-2-2-|-0-0-0-0-0-0-0-0-|
E-----------------|-----------------|

e-----------------|-----------------|
B-----------------|-----------------|
G-9-9-9-9-9-9-9-9-|-9-x-9-x-9-x-9-x-|
D-9-9-9-9-9-9-9-9-|-9-x-9-x-9-x-9-x-|
A-7-7-7-7-7-7-7-7-|-7-x-7-x-7-x-7-x-|
E-----------------|-----------------|

Xylophone plays something like that:

e-5--5-55--3---|-5--5-55--3-2-|-5--5-55--3---|-2-2-2-3----2----|
B------------3-|--------------|------------3-|----------5----3-|
G--------------|--------------|--------------|-----------------|
D--------------|--------------|--------------|-----------------|
A--------------|--------------|--------------|-----------------|
E--------------|--------------|--------------|-----------------|


Interlude:

Guitar 1:

e---------7-7-7------|
B-8--8-7-7-----7-----|
G---------------7--7-|  3x
D--------------------|
A--------------------|
E--------------------|

e--------------------------|
B-8--8-7-7--10-10-1010--7-7|
G--------------------------|
D--------------------------|
A--------------------------|
E--------------------------|

"Bis nichts passiert..."

Guitar 1:

e---------7-7-7------|
B-8--8-7-7-----7-----|
G---------------7--7-|  3x
D--------------------|
A--------------------|
E--------------------|

e------------------------------------------|  
B-8-8-8-8-7-7-7-7-10-10-10-10-12-12-12-12--|
G------------------------------------------|
D------------------------------------------|
A------------------------------------------|
E------------------------------------------|

Guitar 2: (I couldn't figure out the rhythm)

e-7-7-7-7-7-7-7-7-|
B-7-7-7-7-7-7-7-7-|
G-----------------|  4x
D-----------------|
A-----------------|
E-----------------|


Bridge: "Bis nichts passiert. Wir wollen nicht die Besten sein..." 


Guitar 1 & 2:

e---------------------|--------------------------|
B---------------------|--------------------------|
G---------------------|--------------14-14-14-14-| 2x
D-9-9-9-9-11-11-11-11-|-12-12-12-12--x--x--x--x--|
A-x-x-x-x-x--x--x--x--|-x--x--x--x---12-12-12-12-|
E-7-7-7-7-9--9--9--9--|-10-10-10-10--------------|

Guitar 1:

e---------------------|-------------------------| 
B---------------------|-------------------------|
G---------------------|-------------------------|
D-9-9-9-9-11-11-11-11-|-12-12-12-12--11-11-11-11|
A-x-x-x-x-x--x--x--x--|-x--x--x--x---x--x--x--x-|
E-7-7-7-7-9--9--9--9--|-10-10-10-10--9--9--9--9-|


Guitar 2:

e---------------------|--------------------------|
B---------------------|--------------------------|
G---------------------|--------------14-14-14-14-|
D-9-9-9-9-11-11-11-11-|-12-12-12-12--x--x--x--x--|
A-x-x-x-x-x--x--x--x--|-x--x--x--x---12-12-12-12-|
E-7-7-7-7-9--9--9--9--|-10-10-10-10--------------|


Guitar 1 & 2

e-----------------------------|--------------------------|
B-----------------------------|--------------------------|
G--------------14-14-14-14----|--------------------------|
D-11-11-11-11--x--x--x--x-----|-11-11-11-11-11-11-11-11--|
A-x--x--x--x---12-12-12-12----|-x--x--x--x--x--x--x--x---|
E-10-10-10-10-----------------|-9--9--9--9--9--9--9--9---|

e-------------------------|-------------------------|
B-------------------------|-------------------------|
G-12-12-12-12-12-12-12-12-|-11-11-11-11-11-11-11-11-|
D-x--x--x--x--x--x--x--x--|-x--x--x--x--x--x--x--x--|
A-10-10-10-10-10-10-10-10-|-9--9--9--9--9--9--9--9--|
E-------------------------|-------------------------|


Chorus: "Wir wollen nicht die Besten sein..."

Guitar 1

e-----------------|-----------------|
B-----------------|-----------------|
G-4-4-4-4-6-6-6-6-|-7-7-7-7-6-6-6-6-|
D-4-4-4-4-6-6-6-6-|-7-7-7-7-6-6-6-6-| 3x
A-2-2-2-2-4-4-4-4-|-5-5-5-5-4-4-4-4-|
E-----------------|-----------------|

e-----------------|-----------------|
B-----------------|-----------------|
G-4-4-4-4-4-4-4-4-|-2-2-2-2-2-2-2-2-|
D-4-4-4-4-4-4-4-4-|-2-2-2-2-2-2-2-2-|
A-2-2-2-2-2-2-2-2-|-0-0-0-0-0-0-0-0-|
E-----------------|-----------------|



Xylophone plays something like that:

e-5--5-55--3---|-5--5-55--3-2-|-5--5-55--3---|-2-2-2-3----2----|
B------------3-|--------------|------------3-|----------5----3-|
G--------------|--------------|--------------|-----------------|
D--------------|--------------|--------------|-----------------|
A--------------|--------------|--------------|-----------------|
E--------------|--------------|--------------|-----------------|


Chorus 2nd time:

Chorus: "Wir wollen nicht die Besten sein..."

Guitar 1

e-----------------|-----------------|
B-----------------|-----------------|
G-4-4-4-4-6-6-6-6-|-7-7-7-7-6-6-6-6-|
D-4-4-4-4-6-6-6-6-|-7-7-7-7-6-6-6-6-| 3x
A-2-2-2-2-4-4-4-4-|-5-5-5-5-4-4-4-4-|
E-----------------|-----------------|

Guitar 2: 

e---------------------|-----------------------------|
B---------------------|-----------------------------|
G---------------------|--------------14-14-14-14----| 3x
D-9-9-9-9-11-11-11-11-|-12-12-12-12--x--x--x--x-----|
A-x-x-x-x-x--x--x--x--|-x--x--x--x---12-12-12-12----|
E-7-7-7-7-9--9--9--9--|-10-10-10-10-----------------|


Guitar 1 & 2:

e-----------------|-----------------|
B-----------------|-----------------|
G-4-4-4-4-4-4-4-4-|-2-2-2-2-2-2-2-2-|
D-4-4-4-4-4-4-4-4-|-2-2-2-2-2-2-2-2-|
A-2-2-2-2-2-2-2-2-|-0-0-0-0-0-0-0-0-|
E-----------------|-----------------|


Xylophone plays something like that:


Xylophone plays something like that:

e-5--5-55--3---|-5--5-55--3-2-|-5--5-55--3---|-2-2-2-3----2----|
B------------3-|--------------|------------3-|----------5----3-|
G--------------|--------------|--------------|-----------------|
D--------------|--------------|--------------|-----------------|
A--------------|--------------|--------------|-----------------|
E--------------|--------------|--------------|-----------------|


Outro:

Guitar 1:

e-----------------------------|
B-----------------------------|
G------------4--4-4-----7-7-7-|
D-5--5-4--4--4--4-4--4--7-7-7-|
A-5--5-4--4--2--2-2--4--5-5-5-|
E-3--3-2--2----------2--------|


Guitar 2:

e---------7-7-7------|
B-8--8-7-7-----7-----|
G---------------7--7-|
D--------------------|
A--------------------|
E--------------------|

That's it. Hope you had enyoj it.

You can write me for questions.

Ihr könnt mir auch auf deutsch schreiben.

Don't forget to rate it.

Thanks

© by tiadoro
Добавлено: 02.05.2012
Другие материалы по этой песне:
  • Аккорды и текст

Страница создана 02.05.2012
http://primanota.ru/juli/am-besten-sein-chords.htm
Привет, Гость.
Предлагаем пройти революционный курс по гитаре.
Подарок от PrimaNota.Ru, забирай!