PrimaNota.ru - самый крупный в мире бесплатный архив песенных текстов, аккордов, табулатур и нот


Jukebox The Ghost - Carrying - текст песни, таба, видео

Регистрация Запомнить меня
Войти через:  Facebook Google Twitter Vk Yandex Mail.ru

Jukebox The Ghost - Carrying - текст песни, таба, видео

Печатать
Просмотров: 100
Уроки эстрадного вокала в Санкт-Петербурге
-------------------------------------------------------------------------------
                            CARRYING - Jukebox the Ghost
-------------------------------------------------------------------------------
Tabbed by: allegra rosenberg
@ginger_time / stopitsgingertime @ tumblr

this is my first tab ever idk what i'm doing

e|---------------------------------------------------------------------------|
B|---7-----------------------------------------------------------------------|
G|---------4-6-7-6-4-7-4-4---6-----------------------------------------------|
D|----7---7----------------7-------------7-7---9-7-9-11-11-------------------|
A|-----------------------------9--9-7-----9-9--------------------------------|
E|------------------------------------10-------------------------------------|

e|---------------------------------------------------------------------------|
B|--*7-----------------------------------------------------------------------|
G|---------4-6-7-6-4-7-4-4---7-6---------------------------------------------|
D|----7--7-----------------7--------------7-----9-7-9-11-11------------------|
A|--------------------------------9--9-7---9---------------------------------|
E|---------------------------------10----------------------------------------|


*slide up on G string


YEAH!!!! JUKEBOX THE GHOST RULES
Добавлено: 22.07.2015
Другие материалы по этой песне:
  • Аккорды и текст

Страница создана 20.08.2014
http://primanota.ru/jukebox-the-ghost/carrying-chords.htm
Привет, Гость.
Предлагаем пройти революционный курс по гитаре.
Подарок от PrimaNota.Ru, забирай!