PrimaNota.ru - самый крупный в мире бесплатный архив песенных текстов, аккордов, табулатур и нот


Juicy Lucy - Who Do You Love - таба, видео

Регистрация Запомнить меня
Войти через:  Facebook Google Twitter Vk Yandex Mail.ru

Juicy Lucy - Who Do You Love - таба, видео

Печатать
Просмотров: 125
Уроки эстрадного вокала в Санкт-Петербурге
Авторы музыки: Ellas McDaniel
Авторы текста: Ellas McDaniel
-------------------------------------------------------------------------------
                             Who Do You Love - Juicy Lucy
-------------------------------------------------------------------------------
Tabbed by: The Duder

Tuning: estandardo

This has been an elusive tab but I think I have the main riff here -

Guitar 1

e|---------------------------------------------------------------------------|
B|---------------------------------------------------------------------------|
G|---------------------------------------------------------------------------|
D|---------------------------------------------------------------------------|
A|-------7----5-----7------5-------------------------------------------------|
E|----0----0----0------0-------0-----5---------------------------------------|

e|---------------------------------------------------------------------------|
B|---------------------------------------------------------------------------|
G|---------------------------------------------------------------------------|
D|---------------------------------------------------------------------------|
A|-----7-----5-----7-----5-------7-------------------------------------------|
E|--0-----0-----0-----0------0-----------------------------------------------|


Guitar 2 (still kinda iffy on this one)
e|------------------------------------------------------------------------------|
B|------------------------------------------------------------------------------|
G|--------------------7---------------------------------------------------------|
D|-------------------------7----------------------------------------------------|
A|------------------------------------------------------------------------------|
E|-------------------0-----0----------------------------------------------------|


And thats it. It sounds fine when played alongside the original so I guess that means 
right. Just remember to use a lot of distortion and HEAVY WAH and it'll sound great.


http://www.juicy-lucy.com/

| /  slide up
| \  slide down
| h  hammer-on
| p  pull-off
| ~  vibrato
| +  harmonic
| x  Mute note
===============================================================================
Добавлено: 16.07.2012
Другие материалы по этой песне:
  • Аккорды и текст

Страница создана 16.07.2012
http://primanota.ru/juicy-lucy/who-do-you-love-chords.htm
Привет, Гость.
Предлагаем пройти революционный курс по гитаре.
Подарок от PrimaNota.Ru, забирай!