PrimaNota.ru - самый крупный в мире бесплатный архив песенных текстов, аккордов, табулатур и нот


Juha Vainio - Elämää Ja Erotiikkaa - аккорды и текст, видео

Регистрация Запомнить меня
Войти через:  Facebook Google Twitter Vk Yandex Mail.ru

Juha Vainio - Elämää Ja Erotiikkaa - аккорды и текст, видео

Печатать
Просмотров: 230
Уроки эстрадного вокала в Санкт-Петербурге
Elämää Ja Erotiikkaa
Juha Vainio
   Artisti: Juha Vainio
               
   Kappale: Elämää ja Erotiikkaa

Intro:

e|--------------------------------------------------------9-12-10---8-10-12-12-7-8-7-5-|
B|10-10-10-10---10-8-6---8-8------------10-10-10-10-10-12------------------------------|
G|------------9--------------7-9-10-9--------------------------------------------------|
D|-------------------------------------------------------------------------------------|
A|-------------------------------------------------------------------------------------|
E|-------------------------------------------------------------------------------------|

 Säkeistö:
 Am                   E7        Am
   Mun isä uransa loi kyläkauppiaana
             Dm7         G7        C
   hän tunsi ihmismielen piilotajunnan.
              Dm         E7     Am 
   Kun lähdin maailmalle ylioppilaana
            F7                     E7
   niin isä ohjeen antoi yhden ainoan.

Kertosäe:
              A7           Dm
   Hän sanoi: elämää ja erotiikkaa
   G7                      C
   unohtaa ei saisi milloinkaan
         A7                        Dm
   sillä kaikki muu on pelkkää retoriikkaa!
          E7                    Am
   Mut mä tuumin että puhu sinä vaan.

[INTRO]

Säkeistö:
 Am                       E7        Am
   Mä tulin Helsinkiin ja aloin opiskella
              Dm7         G7         C
   ei koskaan aikaa ollut iltarientoihin.
            Dm        E7           Am
   Yökaudet kirjojani tutkin hartaudella
             F7                  E7
   sain seinänaapuriksi ikiteekkarin.

Kertosäe:
               A7           Dm
   Hän lauloi: elämää ja erotiikkaa
   G7                     C 
   unohtaisi en mä milloinkaan.
         A7                       Dm
   Mutta minä painoin kaaliin botaniikkaa
         E7                     Am
   ja mä tuumin että kaikki aikanaan.

Soolo:

e|-----8-7-----------------------------------------------8-7--|
B|--10-----10--------12-10-8------8---10-12-13-12-------------|
G|9-----------10-9-7---------9-10-----------------11-9-8------|
D|------------------------------------------------------------|
A|------------------------------------------------------------|
E|------------------------------------------------------------|

e|--7-8-10-8-7------12-10-8----7-8--10-8-7-8-7----7---7-8-----|
B|-------------10-9---------10-----------------10---------10--|
G|9-------------------------------------------------9---------|
D|------------------------------------------------------------|
A|------------------------------------------------------------|
E|------------------------------------------------------------|

Säkeistö:
 Am                     E7            Am
   Vain kerran isä kävi luonain Helsingissä
             Dm7        G7          C
   kun minut metsämaisteriksi vihittiin.
           Dm          E7          Am
   En ymmärtänyt miksi silmät kyynelissä
               F7                      E7
   hän vahvoin käsin tarttui mua harteisiin.

Kertosäe:
             A7           Dm
   Ja sanoi: elämää ja erotiikkaa
   G7                     C
   unohtaa et saisi kuitenkaan.
          A7                       Dm
   Tää on totuus ja se koskee joka iikkaa
           E7                     Am
   sen kun saisin sinut vielä oppimaan!

[INTRO]

Säkeistö:
 Am                  E7        Am
   Oon pian akateemikko jo kumarainen
           Dm7        G7          C
   ja alan aavistella mistä ilman jäin.
          Dm            E7        Am
   Kun ikiteekkari, tuo Oiva Piirakainen
              F7                           E7
   se sen kun nuortuvan vain näyttää päivittäin.

Kertosäe:
               A7           Dm
   Hän laulaa: elämää ja erotiikkaa
   G7                     C
   luotiin meidät opiskelemaan!
   A7           Dm
   Elämää ja erotiikkaa
          E7                      Am
   täällä unohtaa ei saisi milloinkaan.

   A7           Dm
   Elämää ja erotiikkaa
   G7                     C
   luotiin meidät opiskelemaan!
   A7           Dm
   Elämää ja erotiikkaa
          E7                                  B7  E7   Am
   täällä unohtaa ei saisi (unohtaa ei saisi) mil-loin-kaan!
Добавлено: 22.11.2015
Другие материалы по этой песне:
  • Аккорды и текст

Страница создана 22.11.2015
http://primanota.ru/juha-vainio/elamaa-ja-erotiikkaa-chords.htm
Привет, Гость.
Предлагаем пройти революционный курс по гитаре.
Подарок от PrimaNota.Ru, забирай!