PrimaNota.ru - самый крупный в мире бесплатный архив песенных текстов, аккордов, табулатур и нот


Judson W Van Deventer - I Surrender All - таба, видео

Регистрация Запомнить меня
Войти через:  Facebook Google Twitter Vk Yandex Mail.ru

Judson W Van Deventer - I Surrender All - таба, видео

Печатать
Просмотров: 51
Авторы музыки: Winfield S. Weeden
Авторы текста: Judson W. Van DeVenter
-------------------------------------------------------------------------------
                            I surrender all - Judson W. Van Devnter
-------------------------------------------------------------------------------
Tabbed by:
E-mail:
key of D
Tuning:E-A-D-G-B-e
capo 2
e|---------------------------------------------------------------------------|
B|---------------------------------------------------------------------------|
G|---------------------------------------------------repeat the same notes---|
D|--2--2----3-2-0--0--2-0-------3---3--2--0----------------------------------|
A|--2--2----2-2-2--2--2-2----3--3---3--3--2-3----3---------------------------|
E|-----------------------------------------------3---------------------------|
   all to Jesus I surrender all to Him i freely give i will ever love and trust 
e|---------------------------------------------------------------------------|
B|---------------------------------------------------------------------------|
G|---------------------------------------------------------------------------|
D|---------------------------------------------------------------------------|
A|---------------------------------------------------------------------------|
E|---------------------------------------------------------------------------|
   him in your presence daily Live 
e|---------------------------------------------------------------------------|
B|-1--0------------0--------------------------------1-0-----0----------------|
G|----0-2-0--------0--0----------------------2---0----0-----0--2--0----------|
D|-2----3-2-----3-----2--3------2----2---3---3---2--2----------3--2--3--2--0-|
A|--------------5--------5------3----3---5---------------------------5--3--2-|
E|---------------------------------------------------------------------------|
   i surrender all i surrender all, all to thee my blessed savior i surrender 
e|--0------------------------------------------------------------------------|
B|--1------------------------------------------------------------------------|
G|--0------------------------------------------------------------------------|
D|--2------------------------------------------------------------------------|
A|--3------------------------------------------------------------------------|
E|---------------------------------------------------------------------------|
   all



************************************

| /   slide up
| \   slide down
| h   hammer-on
| p   pull-off
| ~   vibrato
| +   harmonic
| x   Mute note
| b   Bend
| pb  Pre-bend
| br  Bend release
| pbr Pre-bend release
| brb Bend release bend

************************************
Добавлено: 23.12.2015
Другие материалы по этой песне:
  • Аккорды и текст

Страница создана 23.12.2015
http://primanota.ru/judson-w-van-deventer/i-surrender-all-chords.htm
Привет, Гость.
Предлагаем пройти революционный курс по гитаре.
Подарок от PrimaNota.Ru, забирай!