PrimaNota.ru - самый крупный в мире бесплатный архив песенных текстов, аккордов, табулатур и нот


Judee Sill - The Phantom Cowboy - таба, видео

Регистрация Запомнить меня
Войти через:  Facebook Google Twitter Vk Yandex Mail.ru

Judee Sill - The Phantom Cowboy - таба, видео

Печатать
Просмотров: 75
-------------------------------------------------------------------------------
                     THE PHANTOM COWBOY - Judee Sill
-------------------------------------------------------------------------------
Tabbed by: markiiitu
E-mail: marcolucio27@gmail.com

Tuning: Standard

e|-------------------|-------------------|
B|--4-------4--------|--4-------4--------|
G|--4---4---4---4----|--4---4---4---1-3--|
D|----4---4---4---4--|----4---4---4------|
A|--2-------2--------|--2-------2--------|
E|-------------------|-------------------|

************************************

| /   slide up
| \   slide down
| h   hammer-on
| p   pull-off
| ~   vibrato
| +   harmonic
| x   Mute note
| b   Bend
| pb  Pre-bend
| br  Bend release
| pbr Pre-bend release
| brb Bend release bend

************************************
Добавлено: 14.05.2016
Другие материалы по этой песне:
  • Аккорды и текст

Страница создана 14.05.2016
http://primanota.ru/judee-sill/phantom-cowboy-chords.htm
Привет, Гость.
Предлагаем пройти революционный курс по гитаре.
Подарок от PrimaNota.Ru, забирай!