PrimaNota.ru - самый крупный в мире бесплатный архив песенных текстов, аккордов, табулатур и нот


Judee Sill - My Man On Love - таба, видео

Регистрация Запомнить меня
Войти через:  Facebook Google Twitter Vk Yandex Mail.ru

Judee Sill - My Man On Love - таба, видео

Печатать
Просмотров: 56
-------------------------------------------------------------------------------
                             MY MAN ON LOVE - Judee Sill
-------------------------------------------------------------------------------
Tabbed by: markiiitu
E-mail: marcolucio27@gmail.com

Tuning: Standard

e|------------------------|------------------------|------------------------|--------------------|
B|------------------------|------------------------|------------------------|--------------------|
G|----5--5-6-5------------|----5--5-6-5------------|----5--5-6-5------------|----5--5-6-5--------|
D|-----------------6-8-6--|-----------------6-8-6--|-----------------6-8-6--|--------------------|
A|-------------6-8--------|-------------6-8--------|-------------6-8--------|-------------3-4-5--|
E|--4---------------------|--4---------------------|--4---------------------|--4-----------------|

************************************

| /   slide up
| \   slide down
| h   hammer-on
| p   pull-off
| ~   vibrato
| +   harmonic
| x   Mute note
| b   Bend
| pb  Pre-bend
| br  Bend release
| pbr Pre-bend release
| brb Bend release bend

************************************
Добавлено: 14.05.2016
Другие материалы по этой песне:
  • Аккорды и текст

Страница создана 14.05.2016
http://primanota.ru/judee-sill/my-man-on-love-chords.htm
Привет, Гость.
Предлагаем пройти революционный курс по гитаре.
Подарок от PrimaNota.Ru, забирай!