PrimaNota.ru - самый крупный в мире бесплатный архив песенных текстов, аккордов, табулатур и нот


Judee Sill - Lopin Along Thru The Cosmos - таба, видео

Регистрация Запомнить меня
Войти через:  Facebook Google Twitter Vk Yandex Mail.ru

Judee Sill - Lopin Along Thru The Cosmos - таба, видео

Печатать
Просмотров: 81
-------------------------------------------------------------------------------
                     LOPIN' ALONG THRU THE COSMOS - Judee Sill
-------------------------------------------------------------------------------
Tabbed by: markiiitu
E-mail: marcolucio27@gmail.com

Tuning: Standard

e|---------------------|
B|----4-4h6-4----------|
G|----6---6---6--------|
D|--------------6------|
A|--4------------------|
E|----------------4-2--|

************************************

| /   slide up
| \   slide down
| h   hammer-on
| p   pull-off
| ~   vibrato
| +   harmonic
| x   Mute note
| b   Bend
| pb  Pre-bend
| br  Bend release
| pbr Pre-bend release
| brb Bend release bend

************************************
Добавлено: 05.05.2016
Другие материалы по этой песне:
  • Аккорды и текст

Страница создана 05.05.2016
http://primanota.ru/judee-sill/lopin-along-thru-cosmos-chords.htm
Привет, Гость.
Предлагаем пройти революционный курс по гитаре.
Подарок от PrimaNota.Ru, забирай!