PrimaNota.ru - самый крупный в мире бесплатный архив песенных текстов, аккордов, табулатур и нот


Judee Sill - Crayon Angels - таба, видео

Регистрация Запомнить меня
Войти через:  Facebook Google Twitter Vk Yandex Mail.ru

Judee Sill - Crayon Angels - таба, видео

Печатать
Просмотров: 65
Уроки эстрадного вокала в Санкт-Петербурге
-------------------------------------------------------------------------------
                             CRAYON ANGELS - Judee Sill
-------------------------------------------------------------------------------
Tabbed by: markiiitu
E-mail: marcolucio27@gmail.com

Tuning: Standard

e|-----------------------|---------------------|
B|--2-----3---2-----3----|--2-----5-3-2--------|
G|----------2---------2--|--------------2------|
D|----2h4-------2h4------|----2h4--------------|
A|--0---------0----------|--0---------0---4-5--|
E|-----------------------|---------------------|

e|-------------|--------------|-----------------------|-----------------------|
B|-------------|--------------|--2-----3---2-----3----|--2-----5-3-2----------|
G|-------------|--------------|----------2---------2--|------------------4----|
D|--2-/4-2-----|----/4-2------|----2h4-------2h4------|----2h4-------2h6---6--|
A|---------/4--|--2-----------|--0---------0----------|--0---------0----------|
E|-------------|---------2-4--|-----------------------|-----------------------|

************************************

| /   slide up
| \   slide down
| h   hammer-on
| p   pull-off
| ~   vibrato
| +   harmonic
| x   Mute note
| b   Bend
| pb  Pre-bend
| br  Bend release
| pbr Pre-bend release
| brb Bend release bend

************************************
Добавлено: 05.05.2016
Другие материалы по этой песне:
  • Аккорды и текст

Страница создана 05.05.2016
http://primanota.ru/judee-sill/crayon-angels-chords.htm
Привет, Гость.
Предлагаем пройти революционный курс по гитаре.
Подарок от PrimaNota.Ru, забирай!