PrimaNota.ru - самый крупный в мире бесплатный архив песенных текстов, аккордов, табулатур и нот


Judee Sill - Abracadabra - таба, видео

Регистрация Запомнить меня
Войти через:  Facebook Google Twitter Vk Yandex Mail.ru

Judee Sill - Abracadabra - таба, видео

Печатать
Просмотров: 46
-------------------------------------------------------------------------------
                             ABRACADABRA - Judee Sill
-------------------------------------------------------------------------------
Tabbed by: markiiitu
E-mail: marcolucio27@gmail.com

Tuning: Standard

e|----4-0---4h2h0---0--|----2h4h0---4h2h0---0--|
B|--------0------------|----------0------------|
G|----------------2----|------------------2----|
D|--2------------------|--2--------------------|
A|---------------------|-----------------------|
E|---------------------|-----------------------| [x2]


************************************

| /   slide up
| \   slide down
| h   hammer-on
| p   pull-off
| ~   vibrato
| +   harmonic
| x   Mute note
| b   Bend
| pb  Pre-bend
| br  Bend release
| pbr Pre-bend release
| brb Bend release bend

************************************
Добавлено: 05.05.2016
Другие материалы по этой песне:
  • Аккорды и текст

Страница создана 05.05.2016
http://primanota.ru/judee-sill/abracadabra-chords.htm
Привет, Гость.
Предлагаем пройти революционный курс по гитаре.
Подарок от PrimaNota.Ru, забирай!