PrimaNota.ru - самый крупный в мире бесплатный архив песенных текстов, аккордов, табулатур и нот


Jude - I Know - аккорды и текст, таба, видео

Регистрация Запомнить меня
Войти через:  Facebook Google Twitter Vk Yandex Mail.ru

Jude - I Know - аккорды и текст, таба, видео

Печатать
Просмотров: 198
I Know
Jude
Song Title: I know 
Artist: Jude
Album: City Of Angels Soundtrack



   Csus2            Em7              G
[----0----]	[----0----]	[----3----]
[----3----]	[----3----]	[----3----]
[----0----]	[----0----]	[----0----]
[----2----]	[----2----]	[----0----]
[----3----]	[----2----]	[----2----]
[----0----]	[----0----]	[----3----]

     B               C	  	     A7
[----x----]	[----0----]     [----0----]
[----0----]	[----0----]	[----2----]
[----8----]	[----9----]	[----0----]
[----9----]	[---10----]	[----2----]
[----9----]	[---10----]	[----0----]
[----7----]	[----8----]	[----x----]


(Note: Csus2 may not include the E played on the D string)




Intro: Csus2   Em7    Csus2   G     (2X)


Csus2			     Em7
     You
Добавлено: 08.11.2013
Другие материалы по этой песне:
  • Аккорды и текст

Страница создана 17.04.2012
http://primanota.ru/jude/i-know-chords.htm
Привет, Гость.
Предлагаем пройти революционный курс по гитаре.
Подарок от PrimaNota.Ru, забирай!