PrimaNota.ru - самый крупный в мире бесплатный архив песенных текстов, аккордов, табулатур и нот


Jude - George - текст песни, таба, видео

Регистрация Запомнить меня
Войти через:  Facebook Google Twitter Vk Yandex Mail.ru

Jude - George - текст песни, таба, видео

Печатать
Просмотров: 104
-------------------------------------------------------------------------------
                             GEORGE - Jude
-------------------------------------------------------------------------------
Tabbed by: Marc de Saint Sauveur
Email: moxyd AT free.fr


Time signature: 3/4


Intro
-----

|  C    |   Am   | (4 times)


The basic picking patterns (but very light strumming should be fine too) for C and Am are:

   C              Am
E-|----------0---|--------------|
B-|------1---1---|------1---1---|
G-|------0-------|------2---0---|
D-|--------------|--------------|
A-|--3-----------|--0-----------|
E-|--------------|--------------|


Verse
-----

Verses are divided in four parts (1, 2, 1 again, and 3).

- Part 1

|  C    |   Am   |   C    |   Am   | 
|  C    |   Am   |   F    |   F    |

picking on F:

   F              F
E-|--------------|--------------|
B-|----------1---|------1---1---|
G-|------2-------|------2---0---|
D-|------3-------|--------------|
A-|--------------|--------------|
E-|--1-----------|--1-----------|


- Part 2

|  C    |   Am   |   C    |   Am   | 
|  C    |   Am   |  F#dim | F#dim  |
|  F    |   F    |


picking on F#dim:

   F#dim          F#dim
E-|--------------|--------------|
B-|----------1---|------1---1---|
G-|------2-------|------2---0---|
D-|------3-------|--------------|
A-|--------------|--------------|
E-|--2-----------|--2-----------|


- Play part 1 again


- Part 3
|  C    |   Am   |   C    |   Am   | 
|  C    |   Am   |   F    |   F    |
|  E    |   E    |

on E: 

   E              E
E-|--------------|--------------|
B-|------0---0---|------0---0---|
G-|------1---1---|------1---1---|
D-|--------------|--------------|
A-|--------------|--2-----------|
E-|--0-----------|--------------|



Chorus
------

|   C   |    D   |   F   |    F   |
|   G   |    G   |


   C              D              F              F
E-|----------0---|-------2---2--|------1---1---|------1---1---|
B-|------1---1---|-------3---3--|------1---1---|------1---1---|
G-|------0---0---|-------2---2--|------2---2---|------2---2---|
D-|------2-------|--0-----------|--------------|--------------|
A-|--3-----------|--------------|--------------|--------------|
E-|--------------|--------------|--1-----------|--1-----------|

   G              G
  |----------3---|----------3---|
  |------0---0---|------0---0---|
  |------0---0---|------0---0---|
  |--------------|--------------|
  |--------------|--------------|
  |--3-----------|--3-----------|

Half-Intro (play C-Am twice)
----------

Verse
-----

Chorus
------

Intro
-----

Verse
-----

Chorus 
------

play chorus 3 times, but last time, play E instead of G 


Outro
-----

|  Am   |  Am/G  |  Am/F#  |  Am/F  | (4 times)
|  Am   |


   Am             Am/G           Am/F#          Am/F
E-|--------------|--------------|--------------|--------------|
B-|------1---1---|-------1---1--|------1---1---|------1---1---|
G-|------2---2---|-------2---2--|------2---2---|------2---2---|
D-|------2---2---|-------2---2--|------2---2---|------2---2---|
A-|--0-----------|--------------|--------------|--------------|
E-|--------------|--3-----------|--2-----------|--1-----------|
  
   Am
  |--------------|
  |--------------|
  |--2-----------|
  |--2-----------|
  |--0-----------|
  |--------------|
Добавлено: 08.07.2013
Другие материалы по этой песне:
  • Аккорды и текст

Страница создана 12.04.2012
http://primanota.ru/jude/george-chords.htm
Привет, Гость.
Предлагаем пройти революционный курс по гитаре.
Подарок от PrimaNota.Ru, забирай!