PrimaNota.ru - самый крупный в мире бесплатный архив песенных текстов, аккордов, табулатур и нот


Jude - 430 N Harper Ave - аккорды и текст, таба, видео

Регистрация Запомнить меня
Войти через:  Facebook Google Twitter Vk Yandex Mail.ru

Jude - 430 N Harper Ave - аккорды и текст, таба, видео

Печатать
Просмотров: 142
Уроки эстрадного вокала в Санкт-Петербурге
430 N Harper Ave
Jude
Artist: Jude
Album: 430 N. Harper Ave.
Transcribed by: Sexy Sadie

()= hard to here bits, or alternate forms used in the song
p = pull off
x = no note sounded, can be used for a percussive effect.


I Will Not Die
[intro]
One two three four
			   Am	 F        C       G
	    e------|-----0-|-------1-|-----0-|---3-3-|
	    b------|---1-1-|-----1-1-|---1-1-|---3-3-|
	    g------|---2-2-|-----2-2-|---0-0-|---0-0-|
	    d--2-0-|---2-2-|-0-3-3-3-|---2-2-|---0-0-|
	    a------|-0---0-|--(3)--3-|-3---3-|-2---2-|
	    E------|-------|-------1-|-----x-|-----3-|
	     Am	  F		Dm	 G          Am...
	    e-----0---|-----1-1---|-----1-|---------|
	    b---1-1---|-----1-1---|---3-3-|---3-----|
	    g---2-2---|-----2-2---|---2-2-|---0-----|
	    d---2-2-2-|-0-3-3-3---|-0---0-|---0-----|
	    a-0---0---|--(3)--3-3-|-------|-2---3-2-|
	    E---------|-------1---|-------|---------|

  F     C        G            Am
It only hurts me when I'm awake
   F        Dm         G       Am
It seems to die with dreaming
    F        C            G          Am
And there is only so much that I can fake
F             Dm       G       C
When my whole life's careening down
C/B Am   Am/G  F   (fig. 1)
I   will not   die

Same chunking as first verse Am F C G etc.

It only kills me 'cause I'm alive
And living this disaster
And it's all I can do now to survive
I live to be my master

I will not die.  Down I will not die

(Fig. 2)
Fm                      C C/B
When I'm well I long to be
Am     G         Fm
Only in love with you
Fm                     C  C/B Am
But I guess I'll never be     whole
	 G         Am
And you know it's true

(Fig. 2)
It does not stop me that we all die
I know this trip's to slaughter
But if only I could let me cry
I'd feel the healing water

Down I will not die.  Down I will not die.  Down I will not die.

(Fig.1)
e---1-0-1	
b---1-0-1	
g---2-2-2	
d---3-3-3	
a---3-3-3	
E-1-1-0-1	

(Fig.2)
Fm                                       C
e-----1---|-----1---|-----1---|-----1---|-----0---|
b-----1---|-----1---|-----1---|-----1---|-----1---|
g---1-1---|---1---1-|---1---1-|---1---1-|---0-0-0-|
d-3-----3-|---------|---------|---------|-----2---|
a---------|-3-------|-3-------|-3-------|-3-------|
E---------|---------|---------|---------|---------|
C/B        Am        G         Fm
e-----0---|-----0---|-----3---|---|---|---------|
b-----1---|-----1---|-----3---|---|---|---------|
g---0-0-0-|---2-2-2-|---0-0-0-|-1-|-1-|-1-1-1-1-|
d-----0---|-----2---|---------|-3-|-3-|-3-3-3-3-|
a-2-------|-0-------|---------|-3-|-3-|-3-3-3-3-|
E---------|---------|-3-------|---|---|---------|
           C     C/B   Am    G     Am    
e---------|---0-|---0-|---0-|-----|-----|---------|
b---------|---1-|---1-|---1-|---0-|---1-|---1---1-|
g-1-1-1-1-|---0-|---0-|---2-|---0-|---2-|---2---2-|
d-3-3-3-3-|---2-|-0---|-2-2-|-3---|---2-|-2-------|
a-3-3-3-3-|-3---|(2)--|(0)--|-----|-0---|-----3---|
E---------|-----|-----|-----|-----|-----|---------|

e-----------|---------|
b---1-------|-0-0-0-0-|
g---2-------|-0-0-0-0-|
d-----------|-0-0-0-0-|
a-2---2p0---|---------|
E---------0-|-3-2-1-0-|



Out of L.A.
E                 B7                E
This town's gotta shake down to its roots
   E                                                   B7
And I don't know if that's the sands or the tropical fruits
E                      E7
I don't believe all the things I see
    A7                 A7/Bb
But I'm still bettin' on you and me
E             B7                  E
Hey hey baby, we gotta get out of L.A.
E             B7                  E
Hey hey baby, we gotta get out of L.A.

A met a girl who looked like a movie star
She was goin' for a ride and I don't mean in a car
Had the brain about the size of a frozen pea
But on a scale of one to ten she was twenty-three
Hey hey baby, we gotta get out of L.A.

Hey hey baby, we gotta get out of L.A.

A big fat man's gonna make me a king
He gotta see through tan and a pinky diamond ring
Slick back hair, shirt to his thigh
Import silk, slave labor dyed
Hey hey baby, we gotta get out of L.A.

Hey hey baby, we gotta get out of L.A.
Hey hey baby, we gotta go get out of L.A.
Hey hey baby, we gotta get out of L.A.

A tattoo is a popular accoutrement
It come in red and in blue and it says anything you want
Some folks say your gonna regret
But the somedays haven't come around just yet
Hey hey baby, we gotta get out of L.A.

Hey hey baby, we gotta get out of L.A.
Hey hey baby, we gotta go get out of L.A.

And the boy-whores sell their souls on the boulevard
And that's a shirt-free store where they don't take credit cards
From the hills to the chills it's a quick fall down
It's a great big city it's a real small town
Hey hey baby, we gotta get out of L.A.

Hey hey baby, we gotta get out of L.A.
E             B7                     E   E7(9)
Hey hey baby, we gotta go get out of L.A.

   E   E7  E7(9) B7  A7   A7/Bb
e- 0   0   2     2   0    0
b- 0   3   3     0   2    2
g- 1   1   1     2   0    0
d- 2   0   0     1   2    2
a- 2   2   2     2   0    1
E- 0   0   0     x   x    x
The chunking pattern goes root chord chord per measure.  When a chord is held over one measure the pattern changes to root chord chord, fifth chord chord.



You Mama, You
[Intro] just strumming a G chord
G
When I was young and pushed around
C
And beaten up and beaten down
G                           D
Who'd I run to mama tell me who
G
And as I grew to be a man
C
And all the world held such 
Добавлено: 02.12.2013
Другие материалы по этой песне:
  • Аккорды и текст

Страница создана 10.07.2013
http://primanota.ru/jude/430-n-harper-ave-chords.htm
Привет, Гость.
Предлагаем пройти революционный курс по гитаре.
Подарок от PrimaNota.Ru, забирай!