PrimaNota.ru - самый крупный в мире бесплатный архив песенных текстов, аккордов, табулатур и нот


Jude Cole - I Wont Bleed - аккорды и текст, таба, видео

Регистрация Запомнить меня
Войти через:  Facebook Google Twitter Vk Yandex Mail.ru

Jude Cole - I Wont Bleed - аккорды и текст, таба, видео

Печатать
Просмотров: 105
I Wont Bleed
Jude Cole
Yet Another great song by jude. This is off of his latest album, falling home. 
Standard tuning......Its 95% correct, atleast. Here it goes.
 
Artist: Jude Cole
Album: Falling Home
Song: I won't Bleed
Guitar Type: electric 

Key-
 Repeat note x 7
^ repeat note x 8
p palm mute

Intro:
1)
e-------------------------------------------------------------------
b-------------------------------------------------------------------
g-------------------------------------------------------------------
d----2-------------7---------2--------------7-----------------------
a----2--(slide to)-7---------2--(slide to)--7-----------------------
e--0-----------------------0----------------------------------------

Then:
2)
e-------------------------------------------------------------------
b-------------------------10-10-10-10-10----------------------------
g-------9---9-9-9-9--------9--9--9--9--9----------------------------
d-------9---9-9-9-9---7-7--7--7--7--7--7-----------(repeat x 1)-----
a--7-7--7---7-7-7-7---0-0-------------------------------------------
e--0-0--------------------------------------------------------------

Use the riff above (intro 2) for verse. (which is)

It's glorified high school, in a kodak flash.
Homecoming kings an queens, and, pretty white trash.
Graveyard mansions, social x-ray gowns.
Dont trip in my yard buddy, dont bring me down.

Chorus: (light distortion)

e--------------------------------------------------------------------
b--------------------------------------------------------------------
g------7--------------------------7--------------------------7----
d------7----------7--7-7--7-7-7---7-------7--7-7--7-7-7------7----
a------5----------7--7-7--7-7-7---5-------7--7-7--7-7-7------5----
e------------------5--5-5--5-5-5------------5--5-5--5-5-5------------
         I wont bleed!...............I wont bleed anymore, no i wont!

e-------------------------------------------------------------------
b-------------------------------------------------------------------
g-------------------------------------------------------------------
d--------7--7-7--7-7-7--------9--9-----------------(Intro 2 x 2)----
a--------7--7-7--7-7-7--------9--9---(hold)-------------------------
e--------5--5-5--5-5-5--------7--7----------------------------------
  I wont bleed anymore than i already have!

Verse 2: (usinng same verse riff as before)

Black Cloud's creeping, a mile from the coast
When you're in trouble brother, you gotta smile the most
Cause nobody wants you, when you're out on a limb
Just pray for some water, that you can fall in.....

Chorus x 1
Intro 2 x 1  then:

e-------------------------------------------------------------------
b-------------------------------------------------------------------
g-------------------------------------------------------------------
d---6^p---------------------------7^p-------------------------------
a---4^p---------------------------5^p-------------------------------
e-------------------------------------------------------------------
  Here tommorow, and gone today. Give me your number, then go away

e-------------------------------------------------------------------
b-------------------------------------------------------------------
g-----9^p------------------------------13^p-------------------------
d-----9^p------------------------------13^p-------------------------
a-----7^p------------------------------10^p--------------------------
e-------------------------------------------------------------------
  I'm ressurected from the has-bin. So dont say you know me....

e------------------------------
b------------------------------
g--13--------------------------
d--13----(hold)----------------
a--10--------------------------
e------------------------------
  In the state you're in!!

Then Intro 2 x 2 Then verse 3 with same riff as before, except (p)

It's glorified high school, in a peridot class ring
All the winners and losers, still looking for the same thing

Chorus x 3

Thats it
Добавлено: 14.02.2014
Другие материалы по этой песне:
  • Аккорды и текст

Страница создана 27.05.2012
http://primanota.ru/jude-cole/i-wont-bleed-chords.htm
Привет, Гость.
Предлагаем пройти революционный курс по гитаре.
Подарок от PrimaNota.Ru, забирай!