PrimaNota.ru - самый крупный в мире бесплатный архив песенных текстов, аккордов, табулатур и нот


Judas Priest - Running Wild Live - таба, видео

Регистрация Запомнить меня
Войти через:  Facebook Google Twitter Vk Yandex Mail.ru

Judas Priest - Running Wild Live - таба, видео

Печатать
Просмотров: 115
Judas Priest "Running Wild" from UNLEASHED IN THE EAST (1979)

Tabbed by Nick S. I'm not gonna say what parts are palm-muted 'cause if you 
know the song then you'll know what is palm-muted. 
Note: I'm not familiar w/ the studio version of this song, only the live 
version, so the two versions might be a little different. For example, the 
live version of Slayer's "Raining Blood" is a lot longer than the studio 
version, and other times bands shorten the length of a song on a live album.

Riff 1
D-9---9-9-9-9-9---9-9---9-9-9-9-9---
A-7---7-7-7-7-7---7-7---7-7-7-7-7--- 

Riff 2
D-9-9--9-9-9-9-9--5-5--5-5-5-5-5--7-7--7-7-7-7-7----------9-9--9-9-9-9--5-5-
A-7-7--7-7-7-7-7--3-3--3-3-3-3-3--5-5--5-5-5-5-5--5----9--7-7--7-7-7-7--3-3-
E-------------------------------------------------3----7--------------------

D-5-5-5-5--7-7--5-5---------9-9--9-9-9-9-9--5-5--5-5-5-5-5--7-7--7-7-7-7-7-
A-3-3-3-3--5-5--3-3---7-7---7-7--7-7-7-7-7--3-3--3-3-3-3-3--5-5--5-5-5-5-5-
E---------------------5-5--------------------------------------------------

D----------9-9--9-9-9-9-9---5-5--5-5-5-5-5---7-----
A-5----9---7-7--7-7-7-7-7---3-3--3-3-3-3-3---5-----
E-3----7-------------------------------------------

Riff 3A
A-5--4--4/5---7-------------
E-3--2--2/3---5---0-3-2-0---

Riff 3B
D-5--4--4/5---7-------------
A-3--2--2/3---5---0-3-2-0---

Riff 3B ending
D-2---5--6-6-6-6---
A-0---3--4-4-4-4---

Riff 4 Guitar 1 
D-2---5---4/5---
A-0---3---2/3---

Riff 4 Guitar 2
A-0----2----3----5--

Song order:
Riff 1 4x
Riff 2 once
Riff 3A twice
Riff 2 once
Riff 3A twice
Riff 3B 3x then 3B ending
Riff 4 (Gtr. 1 16x, Gtr. 2 twice)
Riff 1 twice
Riff 2 once
Riff 3A 14x then a little feedback & soloing, then strum E5 (7th fret A, 9th
fret D) then slide E5 chord.

Be sure to check out my "Grinder" tab & also I'm gonna do my "Riding on the 
Wind" tab in a few days. I also plan to tab the following Priest tunes at 
some point (I don't know if I'll do 'em all here): "Devil's Child," "Rapid
Fire," "Metal Gods," "Don't Have To Be Old To Be Wise," "Steeler," & the live 
version of "Exciter." If you want to know when I'm gonna do these tabs,
send me an E-mail (Pantera9560@aol.com) w/ the subj. "Priest tabs." But don't 
whine like a baby in your E-mail & say "Dude, when are you gonna do more 
Priest tabs? I wanna see more Priest tabs." I don't know how soon I'll be 
able to do these tabs (I'm almost done w/ "Steeler" but there's one part I'm 
having a lot of trouble with) so in your E-mail ask me to send you an 
E-mail whenever I've done more Priest tabs.
     
Добавлено: 06.12.2013
Другие материалы по этой песне:
  • Аккорды и текст

Страница создана 06.12.2013
http://primanota.ru/judas-priest/running-wild-live-chords.htm
Привет, Гость.
Предлагаем пройти революционный курс по гитаре.
Подарок от PrimaNota.Ru, забирай!