PrimaNota.ru - самый крупный в мире бесплатный архив песенных текстов, аккордов, табулатур и нот


Judas Priest - Rapid Fire - текст песни, таба, бас-таба, видео

Регистрация Запомнить меня
Войти через:  Facebook Google Twitter Vk Yandex Mail.ru

Judas Priest - Rapid Fire - текст песни, таба, бас-таба, видео

Печатать
Просмотров: 365
Уроки эстрадного вокала в Санкт-Петербурге
Авторы: Glenn Tipton, Rob Halford, Kenneth Downing

Tuning:standard
tabbed by:shredder
artist:Judas priest
song:Rapid fire
album:British steel
Year:1980

i cant believe nobody has tabbed this yet.  This is a priest classic.

Intro
E|-----------------------------------------------------------------|
B|-----------------------------------------------------------------|
G|-----------------------------------------------------------------|
D|-----------------------------------------------------------------|
A|-0-0-0-0-0-0-0-0-0-0-0-0-0-0-0-0-0-0-0-0-0-0-0-0-0-0-0-0-0-0-0-0-|
E|-----------------------------------------------------------------|
play this twice...its all just a bunch of open A notes.

Note:Palm mute the whole thing

Verse
E|-------------------------------------------------------------------------|
B|-------------------------------------------------------------------------|
G|-5---5---5---5---5---5---5---5---2--0-2--5---2--0-2---2--0-2--5---2--0-2-|
D|-5---5---5---5---5---5---5---5---2--0-2--5---2--0-2---2--0-2--5---2--0-2-|
A|-3---3---3---3---3---3---3---3-------------------------------------------|
E|-------------------------------------------------------------------------|
play twice

then
E|--------------------------------------------|
B|--------------------------------------------|
G|-------------------------2--0-2--5---2--0-2-|
D|-5--5--5--5--5--5--5--5--2--0-2--5---2--0-2-|
A|-5--5--5--5--5--5--5--5---------------------|
E|-3--3--3--3--3--3--3--3---------------------|
play twice

then repeat the whole thing for the next verse

Pre-bridge
E|------------------------|
B|------------------------|
G|-9-7-9--12-11-12--9-7-9-|
D|-9-7-9--12-11-12--9-7-9-|
A|------------------------|
E|------------------------|
play this three times

end Pre-bridge
E|------------------------------------------|
B|------------------------------------------|
G|-11-12--9-11-12--9-11-12--9-11-12--9-7====|
D|-11-12--9-11-12--9-11-12--9-11-12--9-7====|
A|------------------------------------------|
E|------------------------------------------|

Bridge
E|---------------------------------|
B|---------------------------------|
G|---------------------------------|
D|---------------------------------|
A|-7p5---7p5---7p5---7p5---7p5-7p5-|
E|---------------------------------|
repeat many times

when lines end hit this
E|-------------------------|
B|-------------------------|
G|-4--4--4--4--4--4--4--4--|
D|-4--4--4--4--4--4--4--4--|
A|-2--2--2--2--2--2--2--2--|
E|-------------------------|
repeat that whole thing twice

then play the verse again and end song

End song
E|---------------------------------|
B|---------------------------------|
G|-0=============================2-|
D|-0=============================2-|
A|---------------------------------|
E|---------------------------------|

That should do it.  I didnt tab out the solos because there were only a few small solos 
they all revolved around one area basically so you can figure them out yourselves.
Long live the Priest
~shredder
Добавлено: 05.05.2012
Другие материалы по этой песне:

Страница создана 24.02.2012
http://primanota.ru/judas-priest/rapid-fire-chords.htm
Привет, Гость.
Предлагаем пройти революционный курс по гитаре.
Подарок от PrimaNota.Ru, забирай!