PrimaNota.ru - самый крупный в мире бесплатный архив песенных текстов, аккордов, табулатур и нот


Judas Priest - Race With The Devil - текст песни, таба, бас-таба, видео

Регистрация Запомнить меня
Войти через:  Facebook Google Twitter Vk Yandex Mail.ru

Judas Priest - Race With The Devil - текст песни, таба, бас-таба, видео

Печатать
Просмотров: 243
Artist : Judas Priest
Song   : Race with the devil
Album  : Sin afther Sin

When    00:00
What    Second Guitar

E-----------------------------------|
B-----------------------------------|
G------7--------5--------3-------2--|     X 2
D------7--------5--------3-------2--|
A------5--------3--------1-------0--|
E-----------------------------------|

When    00:22
What    First Guitar

E---------------------|
B------------------8--|
G-----------7-9-10----|
D----7-9-10-----------|
A---------------------|
E---------------------|

When    00:24
What    First Guitar

E-----10-8------------|
B----------10-8-------|
G---------------10-7--|       X 2
D---------------------|
A---------------------|
E---------------------|

When    00:28
What    First Guitar

E-----10-8------------------------------------|
B----------10-8---------8---------------------|
G---------------10-7-10---10-7-10-7---------7-|       
D-----------------------------------10-7-10---|
A---------------------------------------------|
E---------------------------------------------|

Добавлено: 06.04.2012
Другие материалы по этой песне:

Страница создана 06.04.2012
http://primanota.ru/judas-priest/race-with-the-devil-chords.htm
Привет, Гость.
Предлагаем пройти революционный курс по гитаре.
Подарок от PrimaNota.Ru, забирай!